Afi - Soap Box Derby Chords & Tabs

 

Soap Box Derby Chords & Tabs

Afi Chords & Tabs

Version: 1 Type: Tab 0 ratings
1 star 2 stars 3 stars 4 stars 5 stars
comments

Soap Box Derby Tab

Song: Soap Box Derby
Artist: AFI
Tabbed by: Yayo

Repeat this during the verse and the intro:

|--------------------------------------------------------------------------------|
|--------------------------------------------------------------------------------|
|--------------------------------------------------------------------------------|
|---7--7-7-7-7-7-7-7-7-7-7-7---10-10-10---3-3-3---10-10---5-5-5---10-10--7-------|
|---7--7-7-7-7-7-7-7-7-7-7-7---10-10-10---3-3-3---10-10---5-5-5---10-10--7-------|
|---5--5-5-5-5-5-5-5-5-5-5-5----8--8--8---1-1-1----8--8---3-3-3----8--8--5-------|
      {....pm.....}        {pm}   {pm}            {pm}        {this is
                                                              the same
                                                              chord from
                                                              the start}



Before the corus:

|---------------------------------------|
|---------------------------------------|
|-----------------------9---------------|
|--7--10-10-10-10-10-10-9-9-9-9-9-9-9---|
|--7--10-10-10-10-10-10-7-9-9-9-9-9-9---|
|--5---8--8--8--8--8--8---7-7-7-7-7-7---|

|-----------------------------------------------------------|
|-----------------------------------------------------------|
|-----------------------------------------------------------|
|--7--10-10-10-10-10-10--5-5-5-5-5-5-5-5-5-5-5-5-5-5-5------|
|--7--10-10-10-10-10-10--5-5-5-5-5-5-5-5-5-5-5-5-5-5-5------|
|--5---8--8--8--8--8--8--3-3-3-3-3-3-3-3-3-3-3-3-3-3-3------|


And Then:
[ Tab from: http://www.guitartabs.cc/tabs/a/afi/soap_box_derby_tab.html ]
|-----------------------------------------------------|
|-----------------------------------------------------|
|-------------9-9-9-9-9-9-----------------------------|
|--7-7-7-7-7--9-9-9-9-9-9--5-5-5-5-5-5--7-7-7-7-7-----|
|--7-7-7-7-7--7-7-7-7-7-7--5-5-5-5-5-5--7-7-7-7-7-----|
|--5-5-5-5-5---------------3-3-3-3-3-3--5-5-5-5-5-----|

|---------------------------------------------------------|
|---------------------------------------------------------|
|-------------9-9-9-9-9-9-9-7-----------------------------|
|--7-7-7-7-7--9-9-9-9-9-9-9-7--5-5-5-5-5-5--7-7-7-7-7-----|
|--7-7-7-7-7--7-7-7-7-7-7-7-5--5-5-5-5-5-5--7-7-7-7-7-----|
|--5-5-5-5-5-------------------3-3-3-3-3-3--5-5-5-5-5-----|

Ends:

|------------|
|------------|
|------------|
|--7-7-7-----|
|--7-7-7-----|
|--5-5-5-----|


This is the song. If you have any correccions or comments... I really dont care...

4teto!

YaYo.aReNaS.JoRGe.mEnDiETa

 xxx       xxx xxxxxxxxxxxx xxxxxxxxxxx  xxxxxxxxxxxxx xxxxxxxxxxxxx
 xxx       xxx xxxxxxxxxxxx xxxxxxxxxxx  xxxxxxxxxxxxx xxxxxxxxxxxxx
 xxx       xxx     xxxx     xxx               xxx      xxx       xxx
 xxx       xxx     xxxx     xxx               xxx      xxx       xxx
 xxxxxxxxxxxxx     xxxx     xxx               xxx      xxx       xxx
 xxxxxxxxxxxxx     xxxx     xxxxxxxxxxx       xxx      xxx       xxx
           xxx     xxxx     xxxxxxxxxxx       xxx      xxx       xxx
           xxx     xxxx     xxx               xxx      xxx       xxx
           xxx     xxxx     xxx               xxx      xxx       xxx
           xxx     xxxx     xxxxxxxxxxx       xxx      xxxxxxxxxxxxx
           xxx     xxxx     xxxxxxxxxxx       xxx      xxxxxxxxxxxxx
Comments