Afi - Soap Box Derby Chords & Tabs

 

Soap Box Derby Chords & Tabs

Afi Chords & Tabs

Version: 3 Type: Bass Tab

Soap Box Derby Bass Tab

Soap Box Derby by AFI


No one has ever tabbed this song out well so i decided to fix that.
This is the real tab just listen to the song.
Enjoy.
Tabbed by : Kevin Villeneuve (conscious_bassplayer@hotmail.com)
Standard eadg tuning


Intro (jump in with guitar 2)
G-----------------------------------------------------------|
D-----------------------------------------------------------|
A-------------------------------3-3---------3-3---------3-3-|
E--5--5-5-5-5-5-5-5-5-5-5-5-5-5-----1-1-1-1-----3-3-3-3-----|

Intro (cont.)
G-------------------------14-14-14-12----12----------------|
D-------------------------------------14----14-14-12-12----|
A-------------------------------------------------------12-|
E-5(LET RING)----------------------------------------------|

Verse(x2)
   I'm not angry I'm just amused   At your quest for...
G-----------------------------------------------------------|
D-----------------------------------------------------------|
A-------------------------------3-3---------3-3---------3-3-|
E--5--5-5-5-5-5-5-5-5-5-5-5-5-5-----1-1-1-1-----3-3-3-3-----|

Chorus
G--------------------------------------------------------------|
D--------------------------------------------------------------|
A---------------------------------8-8-8-8-8-8-8-8--------------|
E-5-5-5-5-5-5-5-5-5-5-5-5-5-5-5-5-----------------3--3-3-3-3-3-|
[ Tab from: http://www.guitartabs.cc/tabs/a/afi/soap_box_derby_btab_ver_3.html ]
Chorus (cont.)
G----------------------------------------------------------------------------|
D----------------------------------------------------------------------------|(LET RING THE 7)
A---------------------------------8-8-8-8-8-8-8-8-10-10-10-10-10-10-10-10-7--|
E-5-5-5-5-5-5-5-5-5-5-5-5-5-5-5-5--------------------------------------------|

Other Part
G-------------------------------------------------------------------------|
D-------------------------------------------------------------------------|
A--------3-3-3-3-7-7777-----------------3-3-3-3---------------------------|
E-5-5555----------------7-7-7-7--5-5555---------3-3-3-3-3-3-3-3-----------|

Other Part (cont.)
G-----------------------------------------------------------------|
D-----------------------------------------------------------------|
A-----------------7-7-7-7-7-7-7-7-----------------5-5-5-5-5-5-5-5-|
E-5-5-5-5-5-5-5-5-----------------3-3-3-3-3-3-3-3-----------------|

Other Part (cont.)
G------------------------------------------------------------|
D------------------------------------------------------------|
A---------7-7-7-7---------5-5-5-5----------7-5-3-----5-------|
E-5-5-5-5---------3-3-3-3----------5-5-5-5-------3-----5-5-5-|

Then it goes back to the begining ( you redo all the riffs)
and then the outro

Outro
G------------------------------------------------------------|
D------------------------------------------------------------|
A---------7-7-7-7---------5-5-5-5----------7-5-3-----5-------|
E-5-5-5-5---------3-3-3-3----------5-5-5-5-------3-----5-5-5-|


There ya have it. It's the right version.

If you think there's anything wrong or whatever
email me at : It's at the top of the page dumbass.