Afi - Soap Box Derby Chords & Tabs

 

Soap Box Derby Chords & Tabs

Afi Chords & Tabs

Version: 2 Type: Bass Tab 0 ratings
1 star 2 stars 3 stars 4 stars 5 stars
comments

Soap Box Derby Bass Tab

song: soap box derby
band: afi
tabbed by: norefundsbass
tuning: EADG
i just found that my last verion in the intro i was off by two frets.
ok, first thing to know is to wait a few measures before playing.

intro:

G---------------------------14-14-12---------------------------------------
D------------------------------------14-10---------------------------------
A------------------------------------------15-12---------------------------
E-5 (let ring)-------------------------------------------------------------

verse part1:

G----------------]   ------------------------------------------------------
D----------------]   ------------------------------------------------------
A----------------] x4----7x16----------------------------------------------
E-5x16--1x8--3x8-]   ------------------------------------------------------

verse part2:

G----r----------------------------------------------------------------------
D----e------------------------2-2-2-----------------------------------------
A----s----------------3-3-3-3-------2-2-2-2-------3-3-3-3-2-----------------
E-5--t--3x8-----5-5-5-----------------------5-5-5-----------3x8-------------
[ Tab from: http://www.guitartabs.cc/tabs/a/afi/soap_box_derby_btab_ver_2.html ]
chorus part1:

G-----------------]
D-----------------]
A-----7x8-5x16----]x2
E-5x8-------------]

chorus part2
G--------------------------------------------]
D--------------------------------------------]
A----7-7-5-3-3--------------7-7-5-3----------]x2
E-5-5----------3-3-3--5--5-5--------5-5-5-5-5]

verse part1:

G----------------]   -----------------------------------------------------
D----------------]   -----------------------------------------------------
A----------------] x4----7x16-------------12/3-(strum the slide)----------
E-5x16--1x8--3x8-]   -----------------------------------------------------


G-------------------------------------------------------------]
D---------------2-2-2-----------------------------------------]
A-------3-3-3-3-------2-2-2-2-------3-3-3-3-2-----------------]x2
E-5-5-5-----------------------5-5-5-----------3x8-------------]

chorus part1:

G-----------------]
D-----------------]
A-----7x8-5x16----]x4
E-5x8-------------]

chorus part2
G--------------------------------------------]
D--------------------------------------------]
A----7-7-5-3-3--------------7-7-5-3----------]x4
E-5-5----------3-3-3--5--5-5--------5-5-5-5-5]
Comments