Afi - Smile Chords & Tabs

 

Smile Chords & Tabs

Afi Chords & Tabs

Version: 1 Type: Tab 0 ratings
1 star 2 stars 3 stars 4 stars 5 stars
comments

Smile Tab

AFI - Smile
The Art of Drowning
tabbed by Mark VandenBroek

Intro- first you mute all the strings and strum from the top down and finish on:
			  	      		     end 1st time      end 2nd time X5
	e|-------------|		|----------|----------|---------|
	B|-------------|		|----------|----------|---------|
1st 	G|------9------|	2nd 	|---7---9--|----5/7---|---7/9---|
Part of	D|-2----7------|	part of	|-2-5-5-7--|----3/5---|---5/7---|
intro	A|-2----7------|	intro	|-2-5-5-7--|----3/5---|---5/7---|
	E|-0-----------|		|-0---3----|----------|---------|

Verse (so play the first part then play the 1st ending, than play the 
1st part then the second ending, etc.)

			Endings
 Play twice |	1st & |
   1st time |3rd time | 2nd time|  4th time   |
e|----------|---------|---------|-------------|
B|----------|---------|---------|-------------|
G|---7---9--|---5/7---|--7/9----|---9-7-------|
D|-2-5-5-7--|---3/5---|--5/7-X5-|---7-5-5-2---|
A|-2-5-5-7--|---3/5---|--5/7----|---7-5-5-2---|
E|-0---3----|---------|---------|-------3-0---|

1st Chorus 
[ Tab from: http://www.guitartabs.cc/tabs/a/afi/smile_tab.html ]
e|-------------------------|
B|-------------------------|
G|-------7---9---12---15---|
D|---2---X---X----X----X---|
A|---2---5---7---10---13---|
E|---0---------------------|

verse

2nd Chorus

e|-----------------------------|
B|-----------------------------|
G|-------5-------9---12---15---|
D|---2---5---7---9----X----X---|
A|---2---3---7---7---10---13---|
E|---0-------5-----------------|

Fill (Hide your eyes...)

e|---2p00-1p00-2p0---| Repeated as necessary
B|-------------------|


			Endings
 Play twice |	1st & |
   1st time |3rd time | 2nd time|  4th time   |
e|----------|---------|---------|-------------|
B|----------|---------|---------|-------------|
G|---7---9--|---5/7---|--7/9----|---9-7-------|
D|-2-5-5-7--|---3/5---|--5/7-X10|---7-5-5-2---|
A|-2-5-5-7--|---3/5---|--5/7----|---7-5-5-2---|
E|-0---3----|---------|---------|-------3-0---|


Ending
e|---2p00-1p00-2p0---| Repeated as necessary
B|-------------------|

Well thats it. I had a hard time wrighting it out. its all there so you should get it
*~AFI~*
Comments