Afi - Silver And Cold Chords & Tabs

 

Silver And Cold Chords & Tabs

Afi Chords & Tabs

Version: 8 Type: Tab 0 ratings
1 star 2 stars 3 stars 4 stars 5 stars
comments

Silver And Cold Tab

Whats up everyone. Welcome to my wonderful tab.
This song is played by guitarist Jade Puget (who I might add is much better than me)
After listeneing to the song for a while I came up with this. Most of it is rite. Enjoy.

Tuning: Eb (Standard tuning down 1/2 step)


Piano arranged on guitar
|-----10-14------10-14------10-14------10-17---
|--12---------12---------12---------12---------
|--x----------x----------x----------x----------
|--9----------x----------x----------9----------
|-------------10---------12--------------------
|----------------------------------------------


------10-14---9-10-12---17-15-14---12-14-15---|
---12---------x---------x----------x----------|
---x----------x---------x----------x----------|
---9----------7---------x----------x----------|
------------------------x----------x----------|
------------------------15---------12---------|


Listen to the song to figure out how many times to strum.

|-------------------------------0---|
|-------------------12--14--15--0---|
|-------------------x---x---x---0---|
|---9--7--5--7------9---11--12--2---|
|---9--7--5--7------------------2---|
|---7--5--3--5------------------0---|


|-------------------------------------------------------------0-----
|---------------------------------------------------------------0---
|-------------------------------------------------------------------
|-----0-------0-------0-------0-------0-------0-------0-------------
|-------4-------4-------4-------4-------4-------4-------4-----------
|---7-------3-------5-------7-------7-------5-------3-------0-------


------------------------------------------------------------0--------|
------------------------------------------------------------0--------|
------------------------------------------------------------0--------|
------0-------0-------0-------0-------0-------0-------0-----2--------|
--------4-------4-------4-------4-------4-------4-------4---2--------|
----7-------3-------5-------7-------7-------5-------3-------0--------|


|--------------------------------------------------
|--------------------------------------------------
|--------------------------------------------------
|--------------------------------------------------
|---555--222--444--555-----555--444--222--222------
|---777--333--555--777-----777--555--333--000------
   [pm.......................................]

----------------------------------------------------------------------|
-----------------------------------------------0----------------------|
---------------------------------------0---------0--------------------|
-------------------------------0---------0-------------------222222---|
----555--222--444--555-----------4-------------------222222--222222---|
----777--333--555--777-------7-------5-------3-------000000--000000---|
   [pm.................]                            [pm....]  

Chorus

|-----------------------------------------------------------------------
|-----------------------------------------------------------------------
|--------------------------------------------------------------888888---
|---555555----------777777--999999-----999999--555555--777777--xxxxxx---
|---333333--555555--555555--777777-----777777--333333--555555--666666---
|---333333--333333--555555--777777-----777777----------555555--777777---


-----------------------------7-------------------------------------------|
------------------------------8------------------------------------------|
-------------------------------9-----------------------------------------|
----999999--555555--777777--9---9------999999--777777--5-------7---------|
----777777--333333--555555--7----7-----777777--555555--3-(x12)-5-(x12)---|
----777777----------555555--0----------777777--555555--------------------|



|-------------------------------------------------------------0-----
|---------------------------------------------------------------0---
|-------------------------------------------------------------------
|-----0-------0-------0-------0-------0-------0-------0-------------
|-------4-------4-------4-------4-------4-------4-------4-----------
|---7-------3-------5-------7-------7-------5-------3-------0-------


------------------------------------------------------------12--------|
------------------------------------------------------------12--------|
------------------------------------------------------------12--------|
------0-------0-------0-------0-------0-------0-------0---------------|
--------4-------4-------4-------4-------4-------4-------4-------------|
----7-------3-------5-------7-------7-------5-------3-----------------|


|---------------------------------------------------
|---------------------------------------------------
|---------------------------------------------------
|---------------------------------------------------
|---555--222--444--555------555--444--222--222------
|---777--333--555--777------777--555--333--000------


[ Tab from: http://www.guitartabs.cc/tabs/a/afi/silver_and_cold_tab_ver_8.html ]
-------------------------------------------------------------------|
-------------------------------------------------------------------|
-------------------------------------------------------------------|
--------------------------------0-------0-------0---222222222222---|
----555--222--444--555--------4-------4-------4-----222222222222---|
----777--333--555--777------7-------5-------3-------000000000000---|



|--------------------------------------------------------
|--------------------------------------------------------
|--------------------------------------------------------
|--------------------------------------------------------
|---99-xx-55-xx-77-xx-99-xx----99-xx-77-xx-55-xx-22-xx---
|---77-xx-33-xx-55-xx-77-xx----77-xx-55-xx-33-xx-00-xx---



---------------------------------------------------------------------------|
--------------------------------7------5------3----------------------------|
----------------------------------7------6------4--16-16-16--11-11-11---12-|
---------------------------------------------------x--x--x---x--x--x----x--|
----99-xx-55-xx-77-xx-99-xx------------------------14-14-14--9--9--9----10-|
----77-xx-33-xx-55-xx-77-xx---7------5------3------0--0--0---0--0--0----0--|
                                                                        /\
                                                                        x6




Chorus

|-----------------------------------------------------------------------
|-----------------------------------------------------------------------
|--------------------------------------------------------------888888---
|---555555----------777777--999999-----999999--555555--777777--xxxxxx---
|---333333--555555--555555--777777-----777777--333333--555555--666666---
|---333333--333333--555555--777777-----777777----------555555--777777---


-----------------------------7-------------------------------------------|
------------------------------8------------------------------------------|
-------------------------------9-----------------------------------------|
----999999--555555--777777--9---9------999999--777777--5-------7---------|
----777777--333333--555555--7----7-----777777--555555--3-(x12)-5-(x12)---|
----777777----------555555--0----------777777--555555--------------------|



|-------------------------------------------------
|-------------------------------------------------
|-------------0---------------------------0-------
|-----------0---4----------0-4----------0---4-----
|---------4--------------4------------4-----------
|---7-5-7----------7-5-7--------7-5-7-------------



|-----------------------------------------------------------------0-----
|-------------------------------------------------------------------0---
|-----------------------------------------------------------------------
|---------0-------0-------0-------0-------0-------0-------0-------------
|-----------4-------4-------4-------4-------4-------4-------4-----------
|---7-5-7-------3-------5-------7-------7-------5-------3-------0-------



--------------------------------------------------------------0-----
----------------------------------------------------------------0---
--------------------------------------------------------------------
------0-------0-------0-------0-------0-------0-------0-------------
--------4-------4-------4-------4-------4-------4-------4-----------
----7-------3-------5-------7-------7-------5-------3-------0-------



--------------------------------------------------------------------
--------------------------------------------------------------------
--------------------------------------------------------------------
------0-------0-------0-------0-------0-------0-------0-------0-----
--------4-------4-------4-------4-------4-------4-------4-------4---
----7-------3-------5-------7-------7-------5-------3-------5-------



------------------------------------------|
------------------------------------------|
------------------------999999999999------|
----9---------9---------999999999999------|
----7---------7---------777777777777------|
----0-00000---0-00000---000000000000------|
      [pm.]     [...]





Final Chorus

|-----------------------------------------------------------------------
|-----------------------------------------------------------------------
|--------------------------------------------------------------888888---
|---555555----------777777--999999-----999999--555555--777777--xxxxxx---
|---333333--555555--555555--777777-----777777--333333--555555--666666---
|---333333--333333--555555--777777-----777777----------555555--777777---


-----------------------------7----------------------------------------------
------------------------------8---------------------------------------------
-------------------------------9--------------------------------------------
----999999--555555--777777--9---9------999999--777777--555555---------------
----777777--333333--555555--7----7-----777777--555555--333333--222222-------
----777777----------555555--0----------777777--555555----------000000-------



-----------------------------------------------|
-----------------------------------------------|
-----------------------------------------------|
----999999--777777--555555555555--7777777------|
----777777--555555--333333333333--5555555------|
----777777--555555-----------------------------|



Thats it. Any comments or corrections or questions email me. infamousman@msn.com.
Comments