Afi - Silver And Cold Chords & Tabs

 

Silver And Cold Chords & Tabs

Afi Chords & Tabs

Version: 7 Type: Tab 0 ratings
1 star 2 stars 3 stars 4 stars 5 stars
comments

Silver And Cold Tab

   
Song : Silver and COld - AFI
Tabbed By: Jeff (sonixon)
E-mail: man_0v3rboard@hotmail.com



Intro (piano transcribed for guitar)
                Bb         F#
 6/4
  Gtr V
|-------------|-----------------------|
|-------------|-----------------------|
|-------------|-----------------------|
|-------------|-8--11--15--8--11--15--|
|-------------|-x----------9----------|
|-------------|-6---------------------|


  G#sus2     Bb                      G#
|-----------------------|-----------------------|
|-----------------------|-----------------------|
|-3---------------------|------------5------8---|
|-6--11--15--8--11--18--|-8--11--15--x--11------|
|------------x----------|-x----------x----------|
|------------6----------|-6----------4----------|


                                                              
  F#sus2    C#sus2
                                                             
|------------------|-----------------------|----------------|-----|
|------------------|-----------------------|----------------|-----|
|-1----------------|-----------------------|----------------|-----|
|-x--4--3---1----3-|-(3)----4-(4)------(4)-|-(4)------------|-----|
|-x---------4------|-----------------------|----------------|-----|
|-2----------------|-----------------------|----------------|-----|


  B5    B     A5    A       G5    G     A5    A
  Gtr I
|-------------------------|-------------------------|
|-------------------------|-------------------------|
|-------8-8-8-------6-6-6-|-------4-4-4-------6-6-6-|
|-9-9-9-9-9-9-7-7-7-7-7-7-|-5-5-5-5-5-5-7-7-7-7-7-7-|
|-9-9-9-9-9-9-7-7-7-7-7-7-|-5-5-5-5-5-5-7-7-7-7-7-7-|
|-7-7-7-7-7-7-5-5-5-5-5-5-|-3-3-3-3-3-3-5-5-5-5-5-5-|


  B           C#            D           E
|-------------------------|--------------------|--------||
|-------------------------|--------------------|--------||
|-------8-8-8-------6-6-6-|-------4-4-4--------|--------||
|-9-9-9-9-9-9-7-7-7-7-7-7-|-5-5-5-5-5-5--------|--------||
|-9-9-9-9-9-9-7-7-7-7-7-7-|-5-5-5-5-5-5-7------|-(7)----||
|-7-7-7-7-7-7-5-5-5-5-5-5-|-3-3-3-3-3-3-0------|-(0)----||
|
| Gtr II
|-------------------------|--------------------|--------||
|-------------------------|--------------------|--------||
|-4-4-4-4-4-4-6-6-6-6-6-6-|-7-7-7-7-7-7--------|--------||
|-x-x-x-x-x-x-x-x-x-x-x-x-|-x-x-x-x-x-x--------|--------||
|-2-2-2-2-2-2-4-4-4-4-4-4-|-5-5-5-5-5-5-7------|-(7)----||
|-------------------------|-------------0------|-(0)----||


 Verse I
|---------------------------|-------------------------|
|---------------------------|-------------------------|
|---------------------------|-------------------------|
|---------------------------|-------------------------|
|-(7)-----------------------|-------------------------|
|-(0)-----------------------|-------------------------|
|
| Gtr III
|---------------------------|-------------------------|
|---------------------------|---------------------5---|
|---------------------------|-----------------------4-|
|-----4---------------------|-------------------------|
|--2----2---5-----7-----9---|---9-----7-----5---------|
|---------3---3-5---5-7---7-|-7---7-5---5-3---3-0-----|


                                              E5
|-------------------------|-------------------------|
|-------------------------|-------------------------|
|-------------------------|-------------------------|
|-------------------------|-------------------------|
|-------------------------|-------------------------|
|-------------------------|-------------------------|
|
|-------------------------|-------------------------|
|-------------------------|-------------------^5----|
|-------------------------|-------------------^4----|
|---4---------------------|-------------------------|
|-2---2---5-----7-----9---|---9-----7-----5---------|
|-------3---3-5---5-7---7-|-7---7-5---5-3---3-^0----|


             
  Gtr III
|----------------|-------------|
|-(5)--------(5)-|-------------|
|-(4)--------(4)-|-------------|
|----------------|-------------|
|----------------|-------------|
|-(0)--------(0)-|-------------|


                            E5
                            Gtr I
  <
|-------------------------|----------------------------||
|---------------------5---|----------------------------||
|-----------------------4-|----------------------------||
|-------------------------|-2-2-2-2-2-2-2-2-2-2-2-2----||
|---9-----7-----5---------|-2-2-2-2-2-2-2-2-2-2-2-2----||
|-7---7-5---5-3---3-0-----|-0-0-0-0-0-0-0-0-0-0-0-0----||


 Chorus
 
  C5          G5            D5          E5                        C5
  Gtrs I, II
|-------------------------|-------------------------|--------------------------|
|-------------------------|-------------------------|--------------------------|
|-5-5-5-5-5-5-------------|-7-7-7-7-7-7-9-9-9-9-9-9-|-9-9-9-9-9-9-5-5-5-5-5-5--|
|-5-5-5-5-5-5-5-5-5-5-5-5-|-7-7-7-7-7-7-9-9-9-9-9-9-|-9-9-9-9-9-9-5-5-5-5-5-5--|
|-3-3-3-3-3-3-5-5-5-5-5-5-|-5-5-5-5-5-5-7-7-7-7-7-7-|-7-7-7-7-7-7-3-3-3-3-3-3--|
|-------------3-3-3-3-3-3-|-------------------------|--------------------------|


                                                                To Dbl. Coda
  D5          B5            C5          G5            D5          E5
|-------------------------|-------------------------|--------------------------|
|-------------------------|-------------------------|--------------------------|
|-7-7-7-7-7-7-4-4-4-4-4-4-|-5-5-5-5-5-5-------------|-7-7-7-7-7-7-9-9-9-9-9-9--|
|-7-7-7-7-7-7-4-4-4-4-4-4-|-5-5-5-5-5-5-5-5-5-5-5-5-|-7-7-7-7-7-7-9-9-9-9-9-9--|
|-5-5-5-5-5-5-2-2-2-2-2-2-|-3-3-3-3-3-3-5-5-5-5-5-5-|-5-5-5-5-5-5-7-7-7-7-7-7--|
|-------------------------|-------------3-3-3-3-3-3-|--------------------------|


                                           To Coda
              D5            C5
|-------------------------|-------------------------|
|-------------------------|-------------------------|
|-9-9-9-9-9-9-7-7-7-7-7-7-|-5-5-5-5-5-5-5-5-5-5-5-5-|
|-9-9-9-9-9-9-7-7-7-7-7-7-|-5-5-5-5-5-5-5-5-5-5-5-5-|
|-7-7-7-7-7-7-5-5-5-5-5-5-|-3-3-3-3-3-3-3-3-3-3-3-3-|
|-------------------------|-------------------------|


  D5
|--------------------------||
|--------------------------||
|-7-7-7-7-7-7-7-7-7-7-7-7--||
|-7-7-7-7-7-7-7-7-7-7-7-7--||
|-5-5-5-5-5-5-5-5-5-5-5-5--||
|--------------------------||


 Verse II
   >
|---------------------------|-------------------------|
|---------------------------|-------------------------|
|-(7)-----------------------|-------------------------|
|-(7)-----------------------|-------------------------|
|-(5)-----------------------|-------------------------|
|---------------------------|-------------------------|
|
| Gtr III
|---------------------------|-------------------------|
|---------------------------|---------------------5---|
|---------------------------|-----------------------4-|
|-----4---------------------|-------------------------|
|--2----2---5-----7-----9---|---9-----7-----5---------|
|---------3---3-5---5-7---7-|-7---7-5---5-3---3-0-----|


                                              C/G
|-------------------------|-------------------------|
|-------------------------|-------------------------|
|-------------------------|-------------------------|
|-------------------------|-------------------------|
|-------------------------|-------------------------|
|-------------------------|-------------------------|
|
|-------------------------|-------------------------|
|-------------------------|-------------------^5----|
|-------------------------|-------------------^5----|
|---4---------------------|-------------------^5----|
|-2---2---5-----7-----9---|---9-----7-----5---------|
|-------3---3-5---5-7---7-|-7---7-5---5-3---3-------|

[ Tab from: http://www.guitartabs.cc/tabs/a/afi/silver_and_cold_tab_ver_7.html ]
                   B5    G5    A5    B5            A5    G5    E5
  Gtr III          Gtr I
                   PM----------------------------------------------|
|----------------|-------------------------|--------------------------|
|-(5)------------|-------------------------|--------------------------|
|-(5)------------|-4-4-4-------------------|--------------------------|
|-(5)------------|-4-4-4-5-5-5-7-7-7-9-9-9-|-9-9-9-7-7-7-5-5-5-2-2-2--|
|----------------|-2-2-2-5-5-5-7-7-7-9-9-9-|-9-9-9-7-7-7-5-5-5-2-2-2--|
|----------------|-------3-3-3-5-5-5-7-7-7-|-7-7-7-5-5-5-3-3-3-0-0-0--|


  B5    G5    A5    B5                        E5
                                                     
  PM--------------------|
|-------------------------|-------------------------|-------------------|
|-------------------------|-------------------------|-------------------|
|-4-4-4-------------------|-------------------------|-------------------|
|-4-4-4-5-5-5-7-7-7-9-9-9-|-------------------2-2-2-|-2-2-2-2-2-2-2-2-2-|
|-2-2-2-5-5-5-7-7-7-9-9-9-|---9-----7-----5---2-2-2-|-2-2-2-2-2-2-2-2-2-|
|-------3-3-3-5-5-5-7-7-7-|-7---7-5---5-3---3-0-0-0-|-0-0-0-0-0-0-0-0-0-|


  B5   G5   A5   B5          A5   G5   E5     B5   G5   A5   B5
 
  PM-----------------------------------------------------------|
|---------------------|---------------------|-----------------------|
|---------------------|---------------------|-----------------------|
|-4-4-----------------|---------------------|-4-4-------------------|
|-4-4--5-5--7-7--9-9--|-9-9--7-7--5-5--2-2--|-4-4--5-5--7-7--9-9----|
|-2-2--5-5--7-7--9-9--|-9-9--7-7--5-5--2-2--|-2-2--5-5--7-7--9-9----|
|------3-3--5-5--7-7--|-7-7--5-5--3-3--0-0--|------3-3--5-5--7-7----|


                                D.S. al Coda
                    D             E
                          
|-------------------------|-------------------||
|-------------------------|-------------------||
|-------------------------|-------------------||
|-------------------2-2-2-|-2-2-2-2-2-2-2-2-2-||
|---9-----7-----5---2-2-2-|-2-2-2-2-2-2-2-2-2-||
|-7---7-5---5-3---3-0-0-0-|-0-0-0-0-0-0-0-0-0-||
|
| Gtr II
|-------------------------|-------------------||
|-------------------------|-------------------||
|-------------------7-7-7-|-7-7-7S9-9-9-9-9-9-||
|-------------------x-x-x-|-x-x-xSx-x-x-x-x-x-||
|-------------------5-5-5-|-5-5-5S7-7-7-7-7-7-||
|-------------------------|-------------------||


 Bridge
  &
  D5

                 Gtr III
  >
|------------------|---------------------|-----------------------|
|------------------|---------------------|-----------------------|
|-7--------(7)-----|-------0-------------|-----------------------|
|-7--------(7)-----|---0h4----4------(4)-|-------0h=4------(4)---|
|-5--------(5)---2-|-2-------------------|-2-2-2-----------------|
|------------------|---------------------|-----------------------|


|-----------------------|-------------------------|--------------------------|
|-----------------------|-------------------------|---------------------5----|
|-------0---------------|-------------------------|-----------------------4--|
|---0h4----4----(4)-----|---4---------------------|--------------------------|
|-2-----------------2-2-|-2---2---5-----7-----9---|---9-----7-----5----------|
|-----------------------|-------3---3-5---5-7---7-|-7---7-5---5-3---3-0------|


||--------------------------|
||o-------------------------|
||--------------------------|
||----4---------------------|
||o-2---2---5-----7-----9---|
||--------3---3-5---5-7---7-|


  1.,2.                       3.
                           3x
|--------------------------||-------------------------|
|---------------------5---o||-------------------------|
|-----------------------4--||-------------------------|
|--------------------------||-------------------------|
|---9-----7-----5---------o||---9-----7-----5---------|
|-7---7-5---5-3---3-0------||-7---7-5---5-3---3-(3)---|


  F    E5           G
  Gtr I
   PM----------------------------------
|-------------------------------------|
|-------------------------------------|
|-------------------------------------|
|--2-2-2---2---2--2--2-2-2---2---2--2-|
|--2-2-2---2---2--2--2-2-2---2---2--2-|
|--0-0-0---0---0--0--0-0-0---0---0--0-|
|
| Gtr II
|  >                 >
|-------------------------------------|
|-------------------------------------|
|-10-----(10)-10-10-12-----(12)-12-12-|
|--x------(x)--x--x--x------(x)--x--x-|
|--8------(8)--8--8-10-----(10)-10-10-|
|-------------------------------------|


                    D.S.S. al Dbl. Coda
  G#                Bb
 --------------------------------------|
|----------------------------------------||
|----------------------------------------||
|----------------------------------------||
|--2-2-2---2---2--2--2-----2-2---2---2-2-||
|--2-2-2---2---2--2--2-----2-2---2---2-2-||
|--0-0-0---0---0--0--0-----0-0---0---0-0-||
|
|  >
|----------------------------------------||
|----------------------------------------||
|-13-----(13)-13-13-15b17======(15)r-----||
|--x------(x)--x--x--x----------(x)------||
|-11-----(11)-11-11-13b15======(13)r-----||
|----------------------------------------||


 Out-Chorus
  
  E5          D5            C5                        E5
                                                      PM--------------------|
|-------------------------|-------------------------|--------------------------|
|-------------------------|-------------------------|--------------------------|
|-9-9-9-9-9-9-7-7-7-7-7-7-|-5-5-5-5-5-5-5-5-5-5-5-5-|--------------------------|
|-9-9-9-9-9-9-7-7-7-7-7-7-|-5-5-5-5-5-5-5-5-5-5-5-5-|-2-2-2-2-2-2-2-2-2-2-2-2--|
|-7-7-7-7-7-7-5-5-5-5-5-5-|-3-3-3-3-3-3-3-3-3-3-3-3-|-2-2-2-2-2-2-2-2-2-2-2-2--|
|-------------------------|-------------------------|-0-0-0-0-0-0-0-0-0-0-0-0--|


  C5          G5            D5          E5                        C5
|-------------------------|-------------------------|--------------------------|
|-------------------------|-------------------------|--------------------------|
|-5-5-5-5-5-5-------------|-7-7-7-7-7-7-9-9-9-9-9-9-|-9-9-9-9-9-9-5-5-5-5-5-5--|
|-5-5-5-5-5-5-5-5-5-5-5-5-|-7-7-7-7-7-7-9-9-9-9-9-9-|-9-9-9-9-9-9-5-5-5-5-5-5--|
|-3-3-3-3-3-3-5-5-5-5-5-5-|-5-5-5-5-5-5-7-7-7-7-7-7-|-7-7-7-7-7-7-3-3-3-3-3-3--|
|-------------3-3-3-3-3-3-|-------------------------|--------------------------|


  D5          B5            C5          G5            D5          E5
|-------------------------|-------------------------|--------------------------|
|-------------------------|-------------------------|--------------------------|
|-7-7-7-7-7-7-4-4-4-4-4-4-|-5-5-5-5-5-5-------------|-7-7-7-7-7-7-9-9-9-9-9-9--|
|-7-7-7-7-7-7-4-4-4-4-4-4-|-5-5-5-5-5-5-5-5-5-5-5-5-|-7-7-7-7-7-7-9-9-9-9-9-9--|
|-5-5-5-5-5-5-2-2-2-2-2-2-|-3-3-3-3-3-3-5-5-5-5-5-5-|-5-5-5-5-5-5-7-7-7-7-7-7--|
|-------------------------|-------------3-3-3-3-3-3-|--------------------------|


              D5            C5                        E5          D5
|-------------------------|-------------------------|--------------------------|
|-------------------------|-------------------------|--------------------------|
|-9-9-9-9-9-9-7-7-7-7-7-7-|-5-5-5-5-5-5-5-5-5-5-5-5-|-9-9-9-9-9-9-7-7-7-7-7-7--|
|-9-9-9-9-9-9-7-7-7-7-7-7-|-5-5-5-5-5-5-5-5-5-5-5-5-|-9-9-9-9-9-9-7-7-7-7-7-7--|
|-7-7-7-7-7-7-5-5-5-5-5-5-|-3-3-3-3-3-3-3-3-3-3-3-3-|-7-7-7-7-7-7-5-5-5-5-5-5--|
|-------------------------|-------------------------|--------------------------|


  C5                        D5
|-------------------------|--------------------|-----*|
|-------------------------|--------------------|-----*|
|-5-5-5-5-5-5-5-5-5-5-5-5-|-7-7-7-7-7-7-7------|-----*|
|-5-5-5-5-5-5-5-5-5-5-5-5-|-7-7-7-7-7-7-7------|-----*|
|-3-3-3-3-3-3-3-3-3-3-3-3-|-5-5-5-5-5-5-5------|-----*|
|-------------------------|--------------------|-----*|
Comments