Afi - Silver And Cold Chords & Tabs

 

Silver And Cold Chords & Tabs

Afi Chords & Tabs

Version: 5 Type: Tab 0 ratings
1 star 2 stars 3 stars 4 stars 5 stars
comments

Silver And Cold Tab

   
AFI
Silver And Cold
Sing The Sorrow
Tuning: Eb Ab Db Gb Bb Eb

h    - Hammer on
p    - Pull off
~    - Hold note
x    - Mute String
PM.. - Palm mute
< >  - Natural harmonic

Not perfect, but IMO better than the others.

[Rain 'n' such]

Piano Intro: (Arranged for guitar; fingerpicked)

|-7-----7-----7-----7------7-----------5----------------------------|
|-----7-----7-----7-----10-----7-----5---8-7---5----7----8----------|
|---7-----7-----7-----7------7---6-7--------------------------------|
|-9-----5-----7-----9------9-----7-----5----------------------------|
|----------------------------------------------7--------------------|
|-------------------------------------------------------------------|

[Drums]

Guitar intro:

|-7-7-7-7-7-7---5-5-5-5-5-5---3-3-3-3-3-3---5-5-5-5-5---|
|-7-7-7-7-7-7---5-5-5-5-5-5---3-3-3-3-3-3---5-5-5-5-5---|
|-7-7-7-7-7-7---6-6-6-6-6-6---4-4-4-4-4-4---6-6-6-6-6---|
|-9-9-9-9-9-9---7-7-7-7-7-7---5-5-5-5-5-5---7-7-7-7-7---|
|-7-9-9-9-9-9---7-7-7-7-7-7---5-5-5-5-5-5---7-7-7-7-7-0-|
|-7-7-7-7-7-7---5-5-5-5-5-5---3-3-3-3-3-3---5-5-5-5-5-0-|

|--------------------------------------------------------0~----|
|--------------------------------------------------------0~----|
|-16-16-16-16-16-16-18-18-18-18-18-18-19-19-19-19-19-----0~----|
|--x--x--x--x--x--x--x--x--x--x--x--x--x--x--x--x--x--0--2~----|
|-14-14-14-14-14-14-16-16-16-16-16-16-17-17-17-17-17--0--2~----|
|--0--0--0--0--0--0--0--0--0--0--0--0--0--0--0--0--0--0--0~----|

First Verse:

|---------------------------------------------0---|
|-----------------------------------------------0-|
|-------------------------------------------------|
|---0-----0-----0-----0-----0-----0-----0---------|
|-----5-----5-----4-----5-----5-----0-----0-------|
|-7-----3-----5-----7-----7-----5-----3-----0-----|

|-------------------------------------------(0)~--|
|-------------------------------------------(0)~--|
|-------------------------------------------(0)~--|
|---0-----0-----0-----0-----0-----0-----0---(2)~--|
|-----5-----5-----4-----5-----5-----0-----0-------|
|-7-----3-----5-----7-----7-----5-----3-----------|

|-------------------------------------------------|
|-------------------------------------------------|
|-------------------------------------------------|
|-------------------------------------------------|
|-------------------------------------------------|
|-7-7-7-3-3-3-5-5-5-7-7-7-7-7-7-5-5-5-3-3-3-0-0-0-|
PM................................................


|-------------------------------------------------|
|---------------------------------------0---------|
|---------------------------------0-------0-------|
|---------------------------0-------0-------------|
|-----------------------------5-------------------|
|-7-7-7-3-3-3-5-5-5-7-7-7-7-----5-----3-----------|
PM.....................

|-------------------0-0-0-|
|-------------------0-0-0-|
|-------------0-0-0-0-0-0-|
|-------2-2-2-2-2-2-2-2-2-|
|-------2-2-2-2-2-2-2-2-2-|
|-0-0-0-0-0-0-0-0-0-0-0-0-|
PM.....


Chorus-Each Chord Played Six Times: 

|------3-----------7-----7-----8-----10-----------|
|-5----3-----7-----8-----8-----8-----10-----------|
|-5----4-----7-----9-----9-----9-----11-----8-----|
|-5----5-----7-----9-----9-----10----12-----7-----|
|-3----5-----5-----7-----7-----10----12-----6-----|
|-3----3-----5-----7-----7-----8-----10-----0-----|

|-7-----8-----10-------7-----7--0------|
|-8-----8-----10---------7------0------|
|-9-----9-----11-----7-----7-----------|
|-9-----10----12-----9-----9-----------|
|-7-----10----12-----9-----9-----------|
|-7-----8-----10-----7-----7-----------|
                     ^ Not played six times (Duh...)

|-7---------------------------------|
|-8-----7-----5-----5-----7----7----|
|-9-----7-----5-----5-----7----7----|
|-9-----7-----5-----5-----7----7----|
|-7-----5-----3-----3-----5----5----|
|-7-----5-----3-----3-----5----5----|
                               ^4 times

Pre-Verse:

|---------------------------------------------0---|
|-----------------------------------------------0-|
|-------------------------------------------------|
|---0-----0-----0-----0-----0-----0-----0---------|
|-----5-----5-----4-----5-----5-----0-----0-------|
|-7-----3-----5-----7-----7-----5-----3-----0-----|

|-------------------------------------------<12>~-|
|-------------------------------------------<12>~-|
|---------------------------------------0---<12>~-|
|---0-----0-----0-----0-----0-----0-------0-------|
|-----5-----5-----4-----5-----5-----0-------------|
|-7-----3-----5-----7-----7-----5-----3-----------|

Secend Verse:
[ Tab from: http://www.guitartabs.cc/tabs/a/afi/silver_and_cold_tab_ver_5.html ]
|-------------------------------------------------|
|-------------------------------------------------|
|-------------------------------------------------|
|-------------------------------------------------|
|-5-5---5-5---4-4-4-5-5-5-5-5-5-4-4-0-5-5-5-2-2-2-|
|-7-7-7-3-3-0-5-5-5-7-7-7-7-7-7-5-5-5-3-3-3-0-0-0-| 
PM...............................................


|-------------------------------------------------|
|-------------------------------------------------|
|-------------------------------------------------|
|-------------------------------------------------|
|-5-5---5-5---4-4-4-5-5-----4-5p4---4-5---4-5-----|
|-7-7-7-3-3-0-5-5-5-7-7-7-7-------5-----3---------| 
PM...................

|-------------------0-0---|
|-------------------0-0---|
|-------------0-0-0-0-0---|
|-------2-2-2-2-2-2-2-2---|
|-------2-2-2-2-2-2-2-2-0-|
|-0-0-0-0-0-0-0-0-0-0-0-0-|

|-7-7---3-3---5-5---7-7---7-7---5-5---3-3---0-0---|
|-7-7---3-3---5-5---7-7---7-7---5-5---3-3---0-0---|
|-7-7---4-4---6-6---7-7---7-7---6-6---4-4---0-0---|
|-9-9---5-5---7-7---9-9---9-9---7-7---5-5---2-2---|
|-9-9---5-5---7-7---9-9---9-9---7-7---5-5---2-2---|
|-7-7---3-3---5-5---7-7---7-7---5-5---3-3---0-0---|
       ^This part could be powerchords but 
        something tells me that they're fuller than that.
        It sounds fine both ways.

|-7-7---3-3---5-5---7-7---------------------------|
|-7-7---3-3---5-5---7-7-----7-----5-----5-0-------|
|-7-7---4-4---6-6---7-7-------7-----6-------------|
|-9-9---5-5---7-7---9-9---9-----7-----5-----------|
|-9-9---5-5---7-7---9-9-0-9-----7-----5-----------|
|-7-7---3-3---5-5---7-7---7-----5-----3-----------|


|--------------------------------------|
|--------------------------------------|
|-16-16-16-14-14-14-12-12-12-14-14-14--|
|--x--x--x--x--x--x--x--x--x--x--x--x--|
|-14-14-14-12-12-12-10-10-10-12-12-12--|
|--0--0--0--0--0--0--0--0--0--0--0--0--|

Second Chorus: Same as before, but with these last six chords:

|-7-----------------5-----7~-----|
|-8-----7-----5-----5-----7~-----|
|-9-----7-----5-----6-----7~-----|
|-9-----7-----5-----7-----9~-----|
|-7-----5-----3-----7-----9~-----|
|-7-----5-----3-----5-----7~-----|

Bridge:

|-------------------------------------------------------------|
|-------------------------------------------------------------|
|-----------0-----------------------------------0-------------|
|---------0-----4---------------4-------------0-----5---------|
|-4-4-4h5-------------4-4-4h5---------4-4-4h5-------------4-4-|
|-7-7-7---------------7-7-7---7-------7-7-7---------------7---|

|---------------------------------------------0---|
|-----------------------------------------------0-|
|-------------------------------------------------|
|---0-----0-----0-----0-----0-----0-----0---------|
|-----0-----5-----4-----5-----5-----4-------------|
|-7-----3-----5-----7-----7-----5-----3---0-0-----|

|---------------------------------------------0---|
|-----------------------------------------------0-|
|-------------------------------------------------|
|---0-----0-----0-----0-----0-----0-----0---------|
|-----5-----5-----4-----5-----5-----0-----0-------|
|-7-----3-----5-----7-----7-----5-----3-----0-----|2x

|-------------------------------------------------|
|-------------------------------------------------|
|-------------------------------------------------|
|---0-----0-----0-----0-----0-----0---------------|
|-----5-----5-----4-----5-----5-----0-------------|
|-7-----3-----5-----7-----7-----5-----5-5-0-------|

|-----------------------------------7-7-7-7-7-7------|
|-----------------------------------7-7-7-7-7-7------|
|-7-------7-7-9-------9-9-11--------7-7-7-7-7-7------|
|-9-------9-9-9-------9-9--9--------9-9-9-9-9-9------|
|-9-------9-9-7-------7-7--7--------9-9-9-9-9-9------|
|-7-------7-7-7-------7-7--7--------7-7-7-7-7-7------|

Third Chorus: same as first chorus, After this, 
the little ascending |-022000-| riff comes in.

Last chorus-Variation at the end, last chords are:

|-7---------0----0----7------------------------|
|-8----7----1----0----8----7----5----5----7----|
|-9----7----2----0----9----7----5----5----7----|
|-9----7----2----2----9----7----5----5----7----|
|-7----5----0----2----7----5----3----3----5----|
|-7----5----0----0----7----5----3----3----5----|

Overdubbed Chorus Riff (probably not that accurate):

|-8----8-7p0h7-5---5-3---3-2---2-3---0~-------|
|---------------------------------------------|
|---------------------------------------------|
|---10-----------7-----5-----4-----5----------|
|---------------------------------------------|
|---------------------------------------------|

End on: |-55777x-|

Please rate

-Guywithguitar
Comments