Afi - Silver And Cold Chords & Tabs

 

Silver And Cold Chords & Tabs

Afi Chords & Tabs

Version: 4 Type: Tab 0 ratings
1 star 2 stars 3 stars 4 stars 5 stars
comments

Silver And Cold Tab

Silver and Cold~~  tabbed by BOBerTT

 \\Intro

e|----------------------------------------------------|
B|----------------------------------------------------|
G|-3---------------15--17--18--3----------------------|
D|-3---6---4---6----x---x---x--x----------------------|
A|-1---6---4---6---13--15--16--1----------------------|
E|-----4---2---4--------------------------------------|

 \\Verse

e|----------------------------------------------------|
B|----------------------------------------------------|
G|----3---------------------------------3-------------|
D|---3------4------6---4---(pm x1)-----3---4--6--4----|
A|--1------4------6---4--x4-----------1---4--6---4----|
e|--------2------4---2-------------------2--2----2----|

 \\Chorus

e|----------------------------------------------------|
B|----------------------------------------------------|
G|-4---------6-8---------4----6-----------------------|
D|-4---4-----6-8--x4-----4----6-----------------------|
A|-2---4-----4-6---------2----4-----------------------|
E|-----2----------------------------------------------|

  \\Verse

e|--------------------|-------------------------------|
B|--------------------|-------------------------------|
G|---3----------------|---3------------------8--------|
D|--3----4---6---4----|--3----4----6---------8--------|
A|-1----4---6---4---x3|-1----4----6----------6--------|
E|-----2---4---2------|-----2----4--------------------|
[ Tab from: http://www.guitartabs.cc/tabs/a/afi/silver_and_cold_tab_ver_4.html ]
e|------------|-------|-----------|-------------------|
B|------------|-------|-----------|-------------------|
G|------------|3------|-----------|--3----------4-6-8-|
D|-3--------x3|x/4-6-4|-3-------x3|-3--4--6--4--4-6-8-|
A|-1-4-6-4----|1/x/x/x|-1-4-6-4---|1--4--6--4---2-4-6-|
E|---2-4-2----|--2-4-4|---2-4-2---|--2--4--2----------|

  \\Chorus

e|------------------|---------------------------------|
B|------------------|---------------------------------|
G|--4-----6--8------|--4------------------------------|
D|--4--4--4--6--X4--|--4------------------------------|
A|--2--4--4--6------|--2------------------------------|
E|-----2------------|---------------------------------|

  \\Bridge

e|------3---------------------------------------------|
B|-----3-3-------3------------------------------------|
G|----3---------3-3-----------------------------------|
D|---3---------3--------------------------------------|
A|--1---------1---------------------------------------|
E|----------------------------------------------------|

  \\Chorus

e|-------------|x|------  OUTRO   --------------------|
B|-------------|x|------------------------------------|
G|-4---6-8-----|x|---3--------------------------------|
D|-4-4-6-8--x4-|x|--3--4--4--2------------------------|
A|-2-4-4-6-----|x|-1--4--4--2--x11--------------------|
E|---2---------|x|---2--6--4--------------------------|


send an email to bob_burt127@yahoo.com if something is wrong, thanks
Comments