Afi - Silver And Cold Chords & Tabs

 

Silver And Cold Chords & Tabs

Afi Chords & Tabs

Version: 2 Type: Tab 0 ratings
1 star 2 stars 3 stars 4 stars 5 stars
comments

Silver And Cold Tab

   
			     Silver and Cold - AFI

Tabbed by: Al Fitton
E-mail: gamester_f@hotmail.com <- send any corrections here...

Tuning: E

Intro after piano

e---------------------------------------------------------------------------
B---------------------------------------------------------------------------
G---------------------------------------------------------------------------
D--8-8-8-8-8-8-8-6-6-6-6-6-6-4-4-4-4-4-4-6-6-6-6-6-6-8-8-8-8-8-8-10-10-10-10-
A--8-8-8-8-8-8-8-6-6-6-6-6-6-4-4-4-4-4-4-6-6-6-6-6-6-8-8-8-8-8-8--8--8--8--8-
E--6-6-6-6-6-6-6-4-4-4-4-4-4-2-2-2-2-2-2-4-4-4-4-4-4-6-6-6-6-6-6--8--8--8--8-
[ Tab from: http://www.guitartabs.cc/tabs/a/afi/silver_and_cold_tab_ver_2.html ]
e------------------------------]
B------------------------------]
G------------------------------]
D--10-10-11-11-11-11-11-11-13--]
A---8--8-11-11-11-11-11-11-13--]
E---8--8--9--9--9--9--9--9-11--]
Verse 1
e-----------------------------------------------------------------]
B-----------------------------------------------------------------]
G-----------------------------------------------------------8-----]
D------8----4----6----3----8----6----4--(6)----          ---8-----]
A----8----4----6----3----8----6----4--(6)------ x 2 then ---6-----]
E--6----2----4----1----6----4----2--(4)--------          ---------]
( )- first time only
P.M. 
e------------------------------------------------------------------------]
B------------------------------------------------------------------------]
G-----------------------------------------------------------------8------]
D--8-x-x-4-x-x-6-x-x-3-x-x-8-x-x-6-x-x-4-x-x-(6-x-x)-          ---8------]
A--8-x-x-4-x-x-6-x-x-3-x-x-8-x-x-6-x-x-4-x-x-(6-x-x)-  x2 then ---6------]
E--6-x-x-2-x-x-4-x-x-1-x-x-6-x-x-4-x-x-2-x-x-(4-x-x)-          ----------]

Chorus
e---------------------------------------------------------------------
B---------------------------------------------------------------------
G--4-4-4-4---------6-6-6-6-8-8-8-8--8-8-8-8-4-4-4-4-6-6-6-6-3-3-3-3---
D--4-4-4-4-4-4-4-4-6-6-6-6-8-8-8-8--8-8-8-8-4-4-4-4-6-6-6-6-1-1-1-1---
A--2-2-2-2-4-4-4-4-4-4-4-4-6-6-6-6--6-6-6-6-2-2-2-2-4-4-4-4-1-1-1-1---
E----------2-2-2-2----------------------------------------------------

e---------------------------------------------------------------------------
B---------------------------------------------------------------------------
G--8-8-8-8-4-4-4-4-6-6-6-6-8-8-8-8--8-8-8-8-6-6-6-6-4-4-4-4-4-4-4-4-6-6-6-6-
D--8-8-8-8-4-4-4-4-6-6-6-6-8-8-8-8--8-8-8-8-6-6-6-6-4-4-4-4-4-4-4-4-6-6-6-6-
A--6-6-6-6-2-2-2-2-4-4-4-4-6-6-6-6--6-6-6-6-4-4-4-4-2-2-2-2-2-2-2-2-4-4-4-4-
E---------------------------------------------------------------------------

e-----------]
B-----------]
G--6-6-6-6--]
D--6-6-6-6--]
A--4-4-4-4--]
E-----------]

Verse 2 Intro same as first part as Verse 1.
P.M. Verse 2.
Repeat Chorus.
Broken Chords for Bridge.
Repeat Chorus to the end.
Comments