Afi - Silver And Cold Chords & Tabs

 

Silver And Cold Chords & Tabs

Afi Chords & Tabs

Version: 1 Type: Tab 1 rating
1 star 2 stars 3 stars 4 stars 5 stars
comments

Silver And Cold Tab

   
Tabber: ANdrew Stewart
Artist: AFI
SOng:SIlver and cold
Tuning:standard and 1/2 step down (Eb Ab Db Gb Bb Eb)

Questions or comments email me at drtrider3456@hotmail.com


INTRO
Eb|----10-14----10-14----10-14----10-17----10-14-9-10-12-17-15-14-12-14-15
Bb|-12-------12-------12-------12-------12--------------------------------
Gb|-----------------------------------------------------------------------
Db|-----------------------------------------------------------------------
Ab|-----------------------------------------------------------------------
Eb|-----------------------------------------------------------------------

Eb|------------------------------------------------------------
Bb|------------------------------------------------------------
Gb|------------------------------------------------------------
Db|9-9-9-9-9-9-7-7-7-7-7-7-5-5-5-5-5-5-7-7-7-7-7-7-9-9-9-9-9-9-
Ab|x-x-x-x-x-x-x-x-x-x-x-x-x-x-x-x-x-x-x-x-x-x-x-x-x-x-x-x-x-x-
Eb|7-7-7-7-7-7-5-5-5-5-5-5-3-3-3-3-3-3-5-5-5-5-5-5-7-7-7-7-7-7-

------------------------------0--||
------------------------------0--||
------------------------------0--||
11111111111-12-12-12-12-12-12-2--||
x-x-x-x-x-x-x--x--x--x--x--x--2--||
9-9-9-9-9-9-10-10-10-10-10-10-0--||
                              ^let ring
[ Tab from: http://www.guitartabs.cc/tabs/a/afi/silver_and_cold_tab.html ]
VERSE (Clean)
Eb|--------------------------------------------0----------------------||
Bb|----------------------------------------------0--------------------||
Gb|-------------------------------------------------------------------||
Db|--4-0---4-0---4-0---4-0---4-0---4-0---4-0--------------------------||
Ab|2-----0-----------0-----2-----0------------------------------------||
Eb|------------3-----------------------3-----0------------------------||

Eb|------------------------------------------0------------------------||
Bb|------------------------------------------0------------------------||
Gb|------------------------------------------0------------------------||
Db|--4-0---4-0---4-0---4-0---4-0---4-0---4-0-2------------------------||
Ab|2-----0-----------0-----2-----0-----------2------------------------||
Eb|------------3-----------------------3-----0------------------------||

PRECHORUS
Eb|-------------------------------------------------------------------||
Bb|-------------------------------------------------------------------||
Gb|-------------------------------------------------------------------||
Db|-------------------------------------------------------------------||
Ab|-------------------------------------------------------------------||
Eb|7-7-7-3-3-3-5-5-5-7-7-7-5-5-5-3-3-3-0-0-0--------------------------||
   |-------------------(P)-----------------|
Eb|-------------------------------------------------------------------||
Bb|-----------------------------0-------------------------------------||
Gb|---------------------------0--0------------------------------------||
Db|-------------------------0--0---2-2-2-2-2-2-2-2-2-2-2-2------------||
Ab|------------------------2-2-----2-2-2-2-2-2-2-2-2-2-2-2------------||
Eb|7-7-7-3-3-3-5-5-5-7-7-7---------0-0-0-0-0-0-0-0-0-0-0-0------------||
                                   |--------(P)----------|
Comments