Afi - Silver And Cold Guitars 1 And 2 Well Most Of It Chords & Tabs

 

Silver And Cold Guitars 1 And 2 Well Most Of It Chords & Tabs

Afi Chords & Tabs

Version: 1 Type: Tab 0 ratings
1 star 2 stars 3 stars 4 stars 5 stars
comments

Silver And Cold Guitars 1 And 2 Well Most Of It Tab

   
SILVER AND COLD

Artist: AFI
Tuning: standard and 1/2 step down (Eb Ab Db Gb Bb Eb)
The only other tab I saw was missing a few things including guitar 2, now who wasn’t paying attention? But I got about 75% of this from the original tabber, so I cannot take full credit. Enjoy!(

     
INTRO: (MENT FOR PIAINO, BUT THIS WORKS TOO)
Eb|-x--10-14--x-10-14--x-10-14--x-10-17--x-10-14-9-10-12-17-15-14-12-14-15
Bb|-12-------12-------12-------12-------12--------------------------------
Gb|-----------------------------------------------------------------------
Db|-----------------------------------------------------------------------
Ab|-----------------------------------------------------------------------
Eb|-----------------------------------------------------------------------
[ Tab from: http://www.guitartabs.cc/tabs/a/afi/silver_and_cold_guitars_1_and_2_well_most_of_it_tab.html ]
Eb|------------------------------------------------------------------------------------------0--||
Bb|------------------------------------------------------------------------------------------0--||
Gb|------------------------------------------------------------------------------------------0--||
Db|9-9-9-9-9-9-7-7-7-7-7-7-5-5-5-5-5-5-7-7-7-7-7-7-9-9-9-9-9-9-11111111111-12-12-12-12-12-12-2--||
Ab|x-x-x-x-x-x-x-x-x-x-x-x-x-x-x-x-x-x-x-x-x-x-x-x-x-x-x-x-x-x-x-x-x-x-x-x-x--x--x--x--x--x--2--||
Eb|7-7-7-7-7-7-5-5-5-5-5-5-3-3-3-3-3-3-5-5-5-5-5-5-7-7-7-7-7-7-9-9-9-9-9-9-10-10-10-10-10-10-0--||
                                                                                             ^let ring
GUITAR 2 PLAYS (AT THIS TIMING)
Eb|------------------------------------------------9-9-9-9-9-9-11111111111-12-12-12-12-12-12-0--||
Bb|------------------------------------------------x-x-x-x-x-x-x-x-x-x-x-x-x--x--x--x--x--x--0--||
Gb|------------------------------------------------7-7-7-7-7-7-9-9-9-9-9-9-10-10-10-10-10-10-0--||
Db|------------------------------------------------------------------------------------------2--||
Ab|------------------------------------------------------------------------------------------2--||
Eb|------------------------------------------------------------------------------------------0--||
                                                                                
VERSE (Clean)
Eb|--------------------------------------------0----------------------||
Bb|----------------------------------------------0--------------------||
Gb|-------------------------------------------------------------------||
Db|--4-0---4-0---4-0---4-0---4-0---4-0---4-0--------------------------||
Ab|2-----0-----------0-----2-----0------------------------------------||
Eb|------------3-----------------------3-----0------------------------||

Eb|------------------------------------------0------------------------||
Bb|------------------------------------------0------------------------||
Gb|------------------------------------------0------------------------||
Db|--4-0---4-0---4-0---4-0---4-0---4-0---4-0-2------------------------||
Ab|2-----0-----------0-----2-----0-----------2------------------------||
Eb|------------3-----------------------3-----0------------------------||
PRECHORUS:
 GUITAR 1 PLAYS TWICE THEN GUITAR 2 PLAYS BELOW
Eb|-------------------------------------------------------------------||
Bb|-------------------------------------------------------------------||
Gb|-------------------------------------------------------------------||
Db|-------------------------------------------------------------------||
Ab|-------------------------------------------------------------------||
Eb|7-7-7-3-3-3-5-5-5-7-7-7-5-5-5-3-3-3-0-0-0--------------------------||
   |-------------------(P)-----------------|
  SO THE TIMING IS THIS:   (GUITAR 2 PLAYS)
                                 /
Eb|-------------------------------------------------------------------||
Bb|-----------------------------0-------------------------------------||
Gb|---------------------------0--0------------------------------------||
Db|-------------------------0--0---2-2-2-2-2-2-2-2-2-2-2-2------------||
Ab|------------------------2-2-----2-2-2-2-2-2-2-2-2-2-2-2------------||
Eb|7-7-7-3-3-3-5-5-5-7-7-7---------0-0-0-0-0-0-0-0-0-0-0-0------------||
                                   |--------(P)----------|
Comments