Afi - Silver And Cold Chords & Tabs

 

Silver And Cold Chords & Tabs

Afi Chords & Tabs

Version: 3 Type: Bass Tab 0 ratings
1 star 2 stars 3 stars 4 stars 5 stars
comments

Silver And Cold Bass Tab

   
Artist: AFI
Song: Silver and Cold
Album: Sing The Sorrow
Instrument: Bass
transcribed by hunter
Tabbed by trpelonchaspunk

                               "SILVER AND COLD"

Intro
G|------------------------------------------------|
D|------------------------------------------------|
A|-2-2-2-5-3-2-0-0-0-5-2-0-------5-3--0-0-0-5-2-0-|
E|-------------------------3-3-3-----3------------|

G|-----------------------------------------|
D|-----------------------------------------|
A|2-2-2-2-2-2-4-4-4-4-4-4-5-5-5-5-5-5-7----|
E|--------------------------------------0~-|

Verse
G|----------------------------|
D|----------------------------|
A|----------------------------|
E|-7\0-7-5-7\0-7\0-7-5-7\0-0~-|

G|-------------------------------------------------|
D|-------------------------------------------------|
A|-2-2-2-------0-0-0-2-2-0-2-2-2-0-0-0-------------|
E|-------3-3-3-------------------------3-4-3-0-0-0-|

Chorus
G|------------------------------------------------------------------------------|
D|------------------------------------------------------------------------------|
A|-333333------2-3-5555-3-5-777777-777777-3333-2-3-5555-3-5/14-14-14-14-14-14---|
E|--------3333------------------------------------------------------------------|

(cont.)
G|-------------------------------------------------|
D|-------------------------------------------------|
A|-7-7-7-7-7-7-3-3-3-3-2-3-5-5-5-5-5-5-7-7-7-7-7-7-|
E|-------------------------------------------------|

(cont.2)
G|----------------------------------------------------------------|
D|-------7-5-4-------5-4------------------------------------------|
A|-7-7-7-------5-5-5-----5-3-3-3-3-3-3-3-3-3-3-2-3-5-5-5-5-5-5/17-|
E|----------------------------------------------------------------|

Post Chorus
G|--------------------------------------------------------------------|
D|--------------------------------------------------------------------|
A|-2-2-----0-0-2-0-2-2-0-0-----------2-2-----0-0-2-0-2-2-0-0-------7~-|
E|-----3-3-----------------3-5-3-0-0-----3-3-----------------3-5-3----|

Verse
Chorus
[ Tab from: http://www.guitartabs.cc/tabs/a/afi/silver_and_cold_btab_ver_3.html ]
Cont. 2 variation before bridge
G|----------------------------------------------------|
D|-------7-5-4-------5-4------------------------------|
A|-7-7-7-------5-5-5-----5-3-3-3-3-3-3-0-0-0-0-0-0-2~-|
E|----------------------------------------------------|

Bridge
G|-----------|---------------------------------|
D|-----------|---------------------------------|
A|-2~-2-0-2~-|-2-2-----0-0-2-0-2-2-0-0---------|
E|-----------|-----3-3-----------------3-3-0-0-|

Last repetition of above
G|--------------------------------------------|
D|--------------------------------------------| play that 2> a lotta times
A|-2-2-2-0-0-0--------0-0-0-2>/14-14-14-14-14-|
E|-------------3-3-3--------------------------|

chorus
Chorus (cont.2) variation
G|-------------------------------------------------------------------------------|
D|-------7-5-4-------7-5-4-------------------------------------------------------|
A|-7-7-7-------5-5-5-------3-3-3-3-3-3-0-0-0-0-0-0-2-2-2-2-2-2/14-14-14-14-14-14-|
E|-------------------------------------------------------------------------------|

Chorus
G|---------------------------------------------------------------------------------|
D|---------------------------------------------------------------------------------|
A|-3333-2-0------2-3-5555-3-5-7777-10-9-777777-3333-2-3-5555-3-5/14-14-14-14-14-14-|
E|----------3333-------------------------------------------------------------------|

(cont.)
G|------------------------------------------------------------------------------|
D|-----9-7-5--------------5-4--------7-5-4-----7-5-4-----5-4--------------------|
A|-777-------3333-2-3-555-----5--777-------777-------555-----5------------------|
E|--------------------------------------------------------------555555-0000-5-7-|

(cont. 2)
G|--------------------------------------------|
D|-----7-5-4-----5-4--------------------------|
A|-777-------555-----5-3333333333-2-3-5555555-|
E|--------------------------------------------|

OK thanks please send me your comments to maxz6@hotmail.com im oscar or trpelonchaspunk 
me to your messenger please ok thanks and byke!
Comments