Afi - Silver And Cold Chords & Tabs

 

Silver And Cold Chords & Tabs

Afi Chords & Tabs

Version: 2 Type: Bass Tab 0 ratings
1 star 2 stars 3 stars 4 stars 5 stars
comments

Silver And Cold Bass Tab

   
AFI - Silver and Cold
Tuning: E A D G

E|-------------------------------------------------| 
D|-------------------------------------------------| 
A|-------------------------------------------5-7-5-| 
E|-7-7-7-7-7-7-5-5-5-5-5-5-3-3-3-3-3-3-5-5-5-------| 

G|----------------------------------------| 
D|----------------------------------------| 
A|-------------4-4-4-4-4-4-5-5-5-5-5-7----| 
E|-7-7-7-7-7-7-------------------------0~-| 

Verse 
G|------------------------------------| 
D|------------------------------------| 
A|------------------------------------| 
E|-7-3-5-7--7-5-3-0--7-3-5-7--7-5-3-0-| 

G|--------------------------------------------------| 
D|--------------------------------------------------| 
A|--------------------------------------------------| 
E|-7-7-7-3-3-3-5-5-5-7-7-7--7-7-7-5-5-5-3-3-3-0-0-0-| 

G|--------------------------------------------------| 
D|--------------------------------------------------| 
A|--------------------------------------------------| 
E|-7-7-7-3-3-3-5-5-5-7-7-7--7-7-7-5-5-5-3-3-3-0-0-0-| 

Pre-Chorus 
G|-------------------| 
D|-------------------| 
A|-------------------| 
E|-0-0-0-0-0-0-0-0-0-| 

Chorus 
G|-------------------------------------------------| 
D|-------------------------------------------------| 
A|-3-3-3-3-3-3-------------5-5-5-5-5-5-7-7-7-7-7-7-| 
E|-------------3-3-3-3-3-3-------------------------| 

G|-------------------------------------------------| 
D|-------------------------------------------------|   x2
A|-7-7-7-7-7-7-3-3-3-3-3-3-5-5-5-5-5-5-------------| 
E|-------------------------------------0-0-0-0-0-0-| 

G|----------------------------------------------------------------------------|
D|----------------------------------------------------------------------------| 
A|-7-7-7-7-9-7--5-5-5-5-7-5--3-3-3-3-3-3-3-3-3-3-2-3--5-5-5-5-5-5-5-5-5-5-5-5-|
E|----------------------------------------------------------------------------| 

Verse 
G|------------------------------------| 
D|------------------------------------| 
A|------------------------------------| 
E|-7-3-5-7--7-5-3-0--7-3-5-7--7-5-3-0-| 
G|--------------------------------------------------| 
D|--------------------------------------------------| 
A|--------------------------------------------------| 
E|-7-7-7-3-3-3-5-5-5-7-7-7--7-7-7-5-5-5-3-3-3-0-0-0-| 

G|---------------------------------------------------------------------|
D|---------------------------------------------------------------------|
A|---------------------------------------------------------------------| 
E|-7-7-7-3-3-3-5-5-5-7-7-7--7-7-7-5-5-5-3-3-3-0-0-0--0-0-0-0-0-0-0-0-0-| 

G|--------------------------------------------------| 
D|--------------------------------------------------| 
A|--------------------------------------------------| 
E|-7-7-7-3-3-3-5-5-5-7-7-7--7-7-7-5-5-5-3-3-3-0-0-0-| 

G|--------------------------------------------------| 
D|--------------------------------------------------| 
A|--------------------------------------------------| 
E|-7-7-7-3-3-3-5-5-5-7-7-7--7-7-7-5-5-5-3-3-3-0-0-0-| 
[ Tab from: http://www.guitartabs.cc/tabs/a/afi/silver_and_cold_btab_ver_2.html ]
Chorus 
G|-------------------------------------------------| 
D|-------------------------------------------------| 
A|-3-3-3-3-3-3-------------5-5-5-5-5-5-7-7-7-7-7-7-| 
E|-------------3-3-3-3-3-3-------------------------| 

G|-------------------------------------------------| 
D|-------------------------------------------------|   x2
A|-7-7-7-7-7-7-3-3-3-3-3-3-5-5-5-5-5-5-------------| 
E|-------------------------------------0-0-0-0-0-0-|

G|---------------------------------------------------| 
D|---------------------------------------------------| 
A|-7-7-7-7-7-7-5-5-5-5-7-5-3-3-3-3-3-3-0-0-0-0-2-0-2-| 
E|---------------------------------------------------| 

Solo/Interlude/Middle Part 
G|-------------------------------| 
D|-------------------------------| 
A|-2-2-2---2-0-2---2-2-2---2-0-2-| 
E|-------------------------------| 

G|-------------------------------------------------------| 
D|-------------------------------------------------------| 
A|-2-2-2-0-2-2-2-0-2---0-0-2-2---0---0-2---0-2-2-2-0---0-| 
E|-------------------3---------3---0-----3-----------3---| 

G|-----------------------------------------------------| 
D|-----------------------------------------------------| 
A|-2-2-2-2-2-2-2-2-2-2-2-2-2-2-2-2-2-2/14--14-14-14-14-| 
E|-----------------------------------------------------| 

Chorus 
G|-----------------------------------------------| 
D|-----------------------------------------------| 
A|-3-3-3-3-3-3-------------5-5-5-5-5-5-7-7-7-7-7-| 
E|-------------3-3-3-3-3-3-----------------------|
G|-------------------------------------------------| 
D|-------------------------------------------------| 
A|-7-7-7-7-7-7-3-3-3-3-3-3-5-5-5-5-5-5-------------| 
E|-------------------------------------0-0-0-0-0-0-| 

G|-------------------------------------------------| 
D|-------------------------------------------------|    
A|-7-7-7-7-7-7-3-3-3-3-3-3-5-5-5-5-5-5-7-7-7-7-7-7-|    
E|-------------------------------------------------|   

G|------------------------------------------|
D|------------------------------------------|
A|7-7-7-7-7-7-5-5-5-5-7-5-3-3-3-3-3-3-3-3-3-|
E|------------------------------------------| 

G|------------------------------------------| 
D|------------------------------------------| 
A|-3-5-7--2-2-2-2-2-2/14--14-14-14-14-14-14-| 
E|------------------------------------------| 

Ending/Chorus 
G|-------------------------------------|      
D|-------------------------0-0-0-0---0-|      
A|-3-3-3-3-2-0---------2-3---------2---|      
E|-------------3-3-3-3-----------------|     

G|-------------------------------------------------|
D|-2-2-2-2-2-2-2-2-2-2-2-2-------------0-0-0-0-0-0-|
A|-------------------------3-3-3-3-3-3-------------|
E|-------------------------------------------------|

G|-------------------------------------------------|    
D|-------------------------------------------7-5-4-|    
A|-------------7-7-7-7-7-7-3-3-3-3-3-3-5-5-5-------|   
E|-0-0-0-0-0-0-------------------------------------|    

|--------------------------------------------------------|
|--------------------------------------------------------|
|---------5-7-7-7-7-9-7-5-5-5-5-5-5--0-0-0-0-------------| 
|0-0-0--7------------------------------------3-2-0-0-0-0-|

G|---------------------------------------------------------------------|
D|---------------------------------------------------------------------| 
A|---5--7-7-7-7-9-7--5-5-5-5-7-5--3-3-3-3-3-3-3-3-3-3-2-3--5-5-5-5-5-5-| 
E|-7-------------------------------------------------------------------|
Comments