Afi - Silver And Cold Chords & Tabs

 

Silver And Cold Chords & Tabs

Afi Chords & Tabs

Version: 1 Type: Bass Tab 0 ratings
1 star 2 stars 3 stars 4 stars 5 stars
comments

Silver And Cold Bass Tab

===============================================================================
              ~~~Silver and Cold - AFI - Sing the Sorrow~~~
===============================================================================
~~    = ring
I, II = play only the first (I.) or second (II.) time through 
*Note: tuned one flat. E flat, A flat etc.*

===============================================================================
     [intro]
G|-----------------------------------------------------:
D|-----------------------------------------------------:
A|-----------------------------------------------------:
E|--7-7-7-7-7-7--5-5-5-5-5-5--3-3-3-3-3-3--5-5-5-5-5-5-:


G|---------------------------------------------|
D|---------------------------------------------|
A|--2-2-2-2-2-2--4-4-4-4-4-4--5-5-5-5-5-5------|   X1
E|-----------------------------------------0~~-|
[ Tab from: http://www.guitartabs.cc/tabs/a/afi/silver_and_cold_btab.html ]
===============================================================================
 [verse]                         
G|-------------:-------------|--------------------------|
D|-------------:-------------|--------------------------|
A|--2-----0--2-:--2--0-------|--------------------------|
E|-----3-------:--------3--0-|--0-0-0-0-0-0-0-0-0-0-0-0-|
                             ^^ to chorus ^^
===============================================================================
   [Chorus]
  
G|-----------------------------------------------------:
D|----------------------------0-0-0-0-0-0--2-2-2-2-2-2-:
A|--3-3-3-3-3-3----------------------------------------:
E|---------------3-3-3-3-3-3---------------------------:

   
G|---------------------------------------------------------:
D|--0-2-2-2-2-2-2---------------0-0-0-0-0-0-0--------------:
A|-----------------3-3-3-3-3-3-----------------2-2-2-2-2-2-:
E|---------------------------------------------------------:

   
G|-----------------------------------------------------:
D|--2-2-2-2-2-2---------------0-0-0-0-0-0--2-2-2-2-2-2-:
A|---------------3-3-3-3-3-3---------------------------:
E|-----------------------------------------------------:


G|----------------------------------------------------:
D|--2-2-2-2-2-2--0-0-0-0-0-0--------------------------:
A|----------------------------3-3-3-3-3-3-3-3-3-3-3-3-:
E|----------------------------------------------------:

   I.                      II.
G|--------------|       G|------------------|
D|--0-0-0-0-0-0-|       D|------------------|
A|--------------|       A|-0-0-0-0-0-0--2~~-|
E|--------------|       E|------------------|

===============================================================================
   [interlude]

G|---------------------------------------|
D|---------------------------------------|
A|--2--2-2~~---2--2-2~~---2--2-2~~---2-2-|  >> to verse >> 
E|---------------------------------------|

===============================================================================
My first tab so yah,
Listen to the song to get the timing and the exact order.
Pick up "Sing the Sorrow", it's their absolute best record yet
( Comments: E-mail me. MIDNIGHTSUN_138@hotmail.com )

~~~~~~~~~~~~~~~~~~~~~~~~~~~~~~~~~~~Enjoy~~~~~~~~~~~~~~~~~~~~~~~~~~~~~~~~~~~~~~~
Comments