Afi - Rizzo In The Box Chords & Tabs

 

Rizzo In The Box Chords & Tabs

Afi Chords & Tabs

Version: 2 Type: Bass Tab 0 ratings
1 star 2 stars 3 stars 4 stars 5 stars
comments

Rizzo In The Box Bass Tab

----------------------------------------------------------------------
                         Rizzo in the Box - AFI
----------------------------------------------------------------------
 
Into and verse (Play each note 8 times)

G|--------------------]
D|------2--------2----]
A|---4----4-2-4-----2-]
E|------------------5-]

Chorus
G|----------------]
D|---2-----2------]
A|------------4-2-]
E|-------5--------]




[ Tab from: http://www.guitartabs.cc/tabs/a/afi/rizzo_in_the_box_btab_ver_2.html ]
Comments