Afi - Rabbits Are Roadkill On Route 37 Chords & Tabs

 

Rabbits Are Roadkill On Route 37 Chords & Tabs

Afi Chords & Tabs

Version: 3 Type: Tab

Rabbits Are Roadkill On Route 37 Tab

   
Rabbits are roadkill on Rt. 37
AFI 
(Eb,Ab,Db,Gb,Bb,Eb)
half a step down
<>=harmonic
h=hammer on
p=pull off
.=palm mute
I got the intro from someone else, and used another tab
to get the idea about the general body of the song, but
i tabbed the whole thing of this.

  Intro
Eb--<7>-------------|--<7>---<7>-------|--<7>-------------|
Bb-----<7>----------|-----<7>----------|-----<7>----------|
Gb--------<7>-------|------------------|--------<7>-------|
Db------------------|------------------|------------------|
Ab------------------|------------------|------------------|
Eb------------------|------------------|------------------|

  Intro pt. 2
Eb---2---------2----|---2-------2--2---|
Bb-----3---------3--|-----3------3--3--|
Gb-4-----4-2-2-----2|-0-----0-----0--0-|
Db------------------|---------2~~~~~~--|
Ab------------------|------------------|
Eb------------------|------------------|

Eb---2---------2-3p2|-----2-------2--2--|
Bb-----3------------|-3-----3------3--3-|
Gb-4-----4-2-2------|---0-----0-----0--0|
Db------------------|-----------2~~~~~~-|
Ab------------------|-------------------|
Eb------------------|-------------------|

  1st Verse
Eb-----------------------------------------------------------------------------0-----|
Bb------------7--------7--------7------------------------7--------7--------7---0-----|
Gb--11111111---7--9999--7--7777--7-------------11111111---7--9999--7--7777--7--0-----|
Db--9-9-9-9-----9-7777---7-5555---5-99999999---9-9-9-9-----9-7777---7-5555---5-2-222-|
Ab----------------------------------77777777-----------------------------------2-----|
Eb-----------------------------------------------------------------------------0-----|
    . . . .       ....     ....     ........   . . . .       ....     ....       ...
  
  Prechorus
Eb---------------------------------------------------------------------|
Bb---------------------------------------------------------------------|
Gb---------------------------------------------------------------------|
Db---------------------------------------------------------------------|
Ab-99999999-77777777-55555555-22222222-99999999-77777777-55555555-2~~--|
Eb-77777777-55555555-33333333-00000000-77777777-55555555-33333333-0~~--|
    ....... ........ ........ ........ ....Let up slowly

  Chorus
Eb----------------------------------<7>----------------------------------|
Bb------------------------------------<7>--------------------------------|
Gb-----------------------------------------------------------------------|
Db--------------------------------------------------------------7-6------|
Ab--9-9--5-5--7-7-7-77777-5-9-9999999-----9-9--5-5--7-7-7-77777-5-4-9-7--|
Eb--7-7--3-3--5-5-5-55555-3-7-7777777-----7-7--3-3--5-5-5-55555-----7-5--|

Eb---------------------------7-7-7-7--------------------------------|
Bb---------------------------7-7-7-7--------------------------------|
Gb---------------------------7-7-7-7--------------------------------|
Db---------------------------9-9-9-9-----------------------7-6------|
Ab--5-5-555-7-7-777-7-7-77-5-9-9-9-9-9-9--5-5--7-7-7-77777-5-4-9-7--|
Eb--3-3-333-5-5-555-5-5-55-3-7-7-7-7-7-7--3-3--5-5-5-55555-----7-5--|

  Post chorus
Eb---2---------2----|---2-------2--2---|
Bb-----3---------3--|-----3------3--3--|
Gb-4-----4-2-2-----2|-0-----0-----0--0-|
Db------------------|---------2~~~~~~--|
Ab------------------|------------------|
Eb------------------|------------------|

Eb---2---------2-3p2|-----2-------2--2--|
Bb-----3------------|-3-----3------3--3-|
Gb-4-----4-2-2------|---0-----0-----0--0|
Db------------------|-----------2~~~~~~-|
Ab------------------|-------------------|
Eb------------------|-------------------|

Verse 2
Eb-------|
Bb-------|
Gb-------|
Db-------|
Ab-------|
Eb--<7>--|

Eb--<7>------|
Bb-----0~~~--|
Gb------<7>--|
Db-----------|
Ab-----------|
Eb-----------|Let the zero ring through the next harmonic too.

  Prechorus
Eb---------------------------------------------------------------------|
Bb---------------------------------------------------------------------|
Gb---------------------------------------------------------------------|
Db---------------------------------------------------------------------|
Ab-99999999-77777777-55555555-22222222-99999999-77777777-55555555-2~~--|
Eb-77777777-55555555-33333333-00000000-77777777-55555555-33333333-0~~--|
    ....... ........ ........ ........ ....Let up slowly

  Chorus
Eb----------------------------------<7>----------------------------------|
Bb------------------------------------<7>--------------------------------|
Gb-----------------------------------------------------------------------|
Db--------------------------------------------------------------7-6------|
Ab--9-9--5-5--7-7-7-77777-5-9-9999999-----9-9--5-5--7-7-7-77777-5-4-9-7--|
Eb--7-7--3-3--5-5-5-55555-3-7-7777777-----7-7--3-3--5-5-5-55555-----7-5--|
[ Tab from: http://www.guitartabs.cc/tabs/a/afi/rabbits_are_roadkill_on_route_37_tab_ver_3.html ]
Eb---------------------------7-7-7-7--------------------------------|
Bb---------------------------7-7-7-7--------------------------------|
Gb---------------------------7-7-7-7--------------------------------|
Db---------------------------9-9-9-9-----------------------7-6------|
Ab--5-5-555-7-7-777-7-7-77-5-9-9-9-9-9-9--5-5--7-7-7-77777-5-4-9-7--|
Eb--3-3-333-5-5-555-5-5-55-3-7-7-7-7-7-7--3-3--5-5-5-55555-----7-5--|

  Bridge
Eb------|
Bb------|
Gb------|
Db------|
Ab--9~~-|
Eb--7~~-|
  Clean Guitar                                       Repeat the 12's alot
Eb----10-----10----10----9-----9----9---12---12---12---14-----14------14-|
Bb--7-----77-----77----7-----77---77---8---88---88-----------------------|
Gb---------------------------------------------------12---1212----1212---|
Db-----------------------------------------------------------------------|
Ab-----------------------------------------------------------------------|
Eb-----------------------------------------------------------------------|
  Backround
Eb---------------------|
Bb---------------------|
Gb--7-7-7-7--7p6-6-6-6-|
Db---------------------|
Ab---------------------|
Eb---------------------|

  Bridge Variation                                    Repeat the 12's alot
Eb----10-----10----10------9----9---9-/-12---12---12---14----14----14-----|
Bb--7---7p0----7p0-------7--7p0--7p0--/8--8p0--8p0------------------------|
Gb---------------------------------------------------12--12p0--12p0-------|
Db------------------------------------------------------------------------|
Ab------------------------------------------------------------------------|
Eb------------------------------------------------------------------------|
    .          .         .       .     .       .      .   .     .

  Distortion
Eb-------------------------------|
Bb-------------------------------|
Gb-------------------------------|
Db--9-9-22-4-5--9---4-5-7---7----|
Ab--9-9-22-4-5--9---4-5-7---7----|
Eb--7-7-00-2-3--7p0-2-3-5---5p0--|x2

Eb--------------------------------------------------|
Bb--------------------------------------------------|
Gb--------------------------------------------------|
Db-----9-9-2-2-4-5~-2-4-5-777~-9-9-2-2-4-5~-2-4-5-7-|
Ab-----9-9-2-2-4-5~-2-4-5-777~-9-9-2-2-4-5~-2-4-5-7-|
Eb--7\-7-7-0-0-2-3~-0-2-3-555~-7-7-0-0-2-3~-0-2-3-5-|

  Solo
Eb---------------------------------------------------------------------------------|
Bb-----------------------8---7---5---3-33--------77--88--77----10-10-10------------|
Gb--7p6---6-7-----6-7--7--00--000-00--------77-----------------11-11-11------------|
Db------9-----9--9----9-----------------------99---99--99--99--12-12-12-9-11-12-14-|
Ab-------------------------------------------------------------10-10-10------------|
Eb---------------------------------------------------------------------------------|
 
  Solo Backing
Eb-----------------------------------------|
Bb-----------------------------------------|
Gb-----------------------------------------|
Db-----------------------------------------|
Ab-9999-7777-5555-2222-9999-7777-5555-4444-|
Eb-7777-5555-3333-0000-7777-5555-3333-2222-|


Eb---2---------2----|---2-------2--2---|
Bb-----3---------3--|-----3------3--3--|
Gb-4-----4-2-2-----2|-0-----0-----0--0-|
Db------------------|---------2~~~~~~--|
Ab------------------|------------------|
Eb------------------|------------------|

Eb---2---------2-3p2|-----2-------2--2--|
Bb-----3------------|-3-----3------3--3-|
Gb-4-----4-2-2------|---0-----0-----0--0|
Db------------------|-----------2~~~~~~-|
Ab------------------|-------------------|
Eb------------------|-------------------|

Eb-----------|
Bb-----------|
Gb-----------|
Db-----------|
Ab-----------|
Eb-Pickslide-|
  
  Outro
Eb---------------------------7-7-7-7--------------------------------|
Bb---------------------------7-7-7-7--------------------------------|
Gb---------------------------7-7-7-7--------------------------------|
Db---------------------------9-9-9-9-----------------------7-6------|
Ab--5-5-555-7-7-777-7-7-77-5-9-9-9-9-9-9--5-5--7-7-7-77777-5-4-9-7--|
Eb--3-3-333-5-5-555-5-5-55-3-7-7-7-7-7-7--3-3--5-5-5-55555-----7-5--|

Eb-----------------------------------55----------------------------------|
Bb-------------------------------------33--------------------------------|
Gb-----------------------------------------------------------------------|
Db--------------------------------------------------------------7-6------|
Ab--9-9--5-5--7-7-7-77777-5-9-9999999-----9-9--5-5--7-7-7-77777-5-4-9-7--|
Eb--7-7--3-3--5-5-5-55555-3-7-7777777-----7-7--3-3--5-5-5-55555-----7-5--|

Eb---------------------------7-7-7-7--------------------------------|
Bb---------------------------7-7-7-7--------------------------------|
Gb---------------------------7-7-7-7--------------------------------|
Db---------------------------9-9-9-9-----------------------7-6------|
Ab--5-5-555-7-7-777-7-7-77-5-9-9-9-9-9-9--5-5--7-7-7-77777-5-4-9-7--|
Eb--3-3-333-5-5-555-5-5-55-3-7-7-7-7-7-7--3-3--5-5-5-55555-----7-5--|

  Backround Outro
Eb---2---------2----|---2-------2--2---|
Bb-----3---------3--|-----3------3--3--|
Gb-4-----4-2-2-----2|-0-----0-----0--0-|
Db------------------|---------2~~~~~~--|
Ab------------------|------------------|
Eb------------------|------------------|

Eb---2---------2-3p2|-----2-------2--2--|
Bb-----3------------|-3-----3------3--3-|
Gb-4-----4-2-2------|---0-----0-----0--0|
Db------------------|-----------2~~~~~~-|
Ab------------------|-------------------|
Eb------------------|-------------------|


  Ending
Eb-----|
Bb-----|
Gb-----|
Db--9\-|
Ab--9\-|
Eb--7\-|