Afi - Rabbits Are Roadkill On Route 37 Chords & Tabs

 

Rabbits Are Roadkill On Route 37 Chords & Tabs

Afi Chords & Tabs

Version: 1 Type: Tab 0 ratings
1 star 2 stars 3 stars 4 stars 5 stars
comments

Rabbits Are Roadkill On Route 37 Tab

I take no credit for this tab. i edited it because though it was correct, it was written
badly. Rabbits are roadkill is a song that was recorded during the STS sessions and was
unreleased on STS (don't know why coz it rocks). To get a copy go to keithfusco.com and
click on the AFI link. Click on downloads and find it. Alternatively there is a direct
link from despairfaction boards that will save you having to find it. Anyway this has a
moderatly fast tempo (maybe 120-130 bpm) and use about half gain and distortion for this
one. Flat tuning (EbAbDbGbBbeb) is use like every other afi song i've tabbed. Enjoy

Song: Rabbits are Roadkill on Route 37
Album: Recorded in STS sessions and unreleased
Tabbed by Joel Grieve

These 7's are harmonics 
Intro Pt1
D#||------------------|--7------------------|------------------|
A#||------------------|-----7---------------|------------------|
F#||------------------|--------7------------|------------------|
C#||------------------|---------------------|------------------|
G#||------------------|---------------------|------------------|
D#||------------------|---------------------|------------------|



--7-----------------|------------------|--7----------------x-x-|
-----7--------------|------------------|-----7-------------x-x-|
--------------------|------------------|--------7----------x-x-|
--------------------|------------------|-------------------x-x-|
--------------------|------------------|-------------------x-x-|
--------------------|------------------|-------------------x-x-|


Intro Pt2
---------------------------------|-----------------------------|
------7-7-------------7-7--------|-----7------------7---7------|
----------7-7-------------7-7----|--------7---0-------7---7----|
--9-9---------7-x-7-x------------|-----------------------------|
-------------------------------0-|--7-----------0-0----------0-|
---------------------------------|-----------------------------|



---------------------------------|-----------------------------|
------7-7----------7-7h10h7------|-----7------------7---7------|
----------7-7---------------7-7--|--------7---0-------7---7----|
--9-9----------7-7---------------|-----------------------------|
---------------------------------|--7-----------0-0----------0-|
---------------------------------|-----------------------------|



----------------------------------|----------------------------------|
------------7---------------7-----|------------7---------------------|
--------------7---------------7---|--------------7-------------------|
----------------9---------------7-|----------------9-----------------|
--9-9-9-9-9-------7-7-7-7-7-------|--5-5-5-5-5-------2-2-2-2-2-2-2-2-|
--7-7-7-7-7-------5-5-5-5-5-------|--3-3-3-3-3-------0-0-0-0-0-0-0-0-|
  . . . . .       . . . . .          . . . . .       . . . . . . . .
   
----------------------------------|------------------------------0-0-|
------------7---------------7-----|------------7---------------0-0-0-|
--------------7---------------7---|--------------7---------0-0-0-0-0-|
----------------9---------------7-|----------------9-2-2-2-2-2-2-2-2-|
--9-9-9-9-9-------7-7-7-7-7-------|--5-5-5-5-5-------2-2-2-2-2-2-2-2-|
--7-7-7-7-7-------5-5-5-5-5-------|--3-3-3-3-3-------0-0-0-0-0-0-0-0-|
  . . . . .       . . . . .          . . . . .       . .
on the E5 gradually release pm.

----------------------------------|----------------------------------|
----------------------------------|----------------------------------|
----------------------------------|----------------------------------|
----------------------------------|----------------------------------|
--9-9-9-9-9-9-9-9-7-7-7-7-7-7-7-7-|--5-5-5-5-5-5-5-5-2-2-2-2-2-2-2-2-|
--7-7-7-7-7-7-7-7-5-5-5-5-5-5-5-5-|--3-3-3-3-3-3-3-3-0-0-0-0-0-0-0-0-|
      . . . . . . . . . . . . . .    . . . . . . . . . . . . . . . . 


----------------------------------|----------3-3-3-3-0--------|
----------------------------------|--3-3-3-3-3-3-3-3-0--------|
--------------------------6-6-6-6-|--4-4-4-4-4-4-4-4-0--------|
----------9-9-9-9-7-7-7-7-7-7-7-7-|--5-5-5-5-5-5-5-5-2--------|
--9-9-9-9-9-9-9-9-7-7-7-7-7-7-7-7-|--5-5-5-5-5-5-5-5-2--------|
--7-7-7-7-7-7-7-7-5-5-5-5-5-5-5-5-|--3-3-3-3-3-3-3-3-0--------|
  . . . .
Gradually release pm.
V harmonics 
Chorus
------------------|--7--7--7--7-7-5--5--5--5---|--5--5--5--5-5-7--7--------|
------------------|--7--7--7--7-7-5--5--5--5---|--5--5--5--5-5-7-----7-----|
------------------|--7--7--7--7-7-6--6--6--6---|--6--6--6--6-6-7--------7--|
------------------|--9--9--9--9-9-7--7--7--7-0-|--7--7--7--7-7-9-----------|
------------------|--9--9--9--9-9-7--7--7--7-0-|--7--7--7--7-7-9-----------|
------------------|--7--7--7--7-7-5--5--5--5-0-|--5--5--5--5-5-7-----------|



--7--7--7--7-7-5--5--5--5---|--5--5--5--5--7--5--0--5-7-|
--7--7--7--7-7-5--5--5--5---|--5--5--5--5--7--5--0--5-7-|
--7--7--7--7-7-6--6--6--6---|--6--6--6--6--7--6--0--6-7-|
--9--9--9--9-9-7--7--7--7-0-|--7--7--7--7--9--7--2--7-9-|
--9--9--9--9-9-7--7--7--7-0-|--7--7--7--7--9--7--2--7-9-|
--7--7--7--7-7-5--5--5--5-0-|--5--5--5--5--7--5--0--5-7-|



--7--7--7--7-7-5--5--5--5---|--5--5--5--5-5-7--7--7--7-7-|
--7--7--7--7-7-5--5--5--5---|--5--5--5--5-5-7--7--7--7-7-|
--7--7--7--7-7-6--6--6--6---|--6--6--6--6-6-7--7--7--7-7-|
--9--9--9--9-9-7--7--7--7-0-|--7--7--7--7-7-9--9--9--9-9-|
--9--9--9--9-9-7--7--7--7-0-|--7--7--7--7-7-9--9--9--9-9-|
--7--7--7--7-7-5--5--5--5-0-|--5--5--5--5-5-7--7--7--7-7-|



--7--7--7--7-7-5--5--5--5---|--5--5--5--5--7--5--0--5-7-|
--7--7--7--7-7-5--5--5--5---|--5--5--5--5--7--5--0--5-7-|
--7--7--7--7-7-6--6--6--6---|--6--6--6--6--7--6--0--6-7-|
--9--9--9--9-9-7--7--7--7-0-|--7--7--7--7--9--7--2--7-9-|
--9--9--9--9-9-7--7--7--7-0-|--7--7--7--7--9--7--2--7-9-|
--7--7--7--7-7-5--5--5--5-0-|--5--5--5--5--7--5--0--5-7-|



---------------------------------|-----------------------------|
------7-7-------------7-7--------|-----7------------7---7------|
----------7-7-------------7-7----|--------7---0-------7---7----|
--9-9---------7-x-7-x------------|-----------------------------|
-------------------------------0-|--7-----------0-0----------0-|
---------------------------------|-----------------------------|



---------------------------------|-----------------------------|
------7-7----------7-7h10h7------|-----7------------7---7------|
----------7-7---------------7-7--|--------7---0-------7---7----|
--9-9----------7-7---------------|-----------------------------|
---------------------------------|--7-----------0-0----------0-|
---------------------------------|-----------------------------|



-------------------|------------------|------------------|
-------------------|------------------|------------------|
-------------------|------------------|------------------|
--9----------------|------------------|------------------|
-------------------|------------------|------------------|
-------------------|------------------|------------------|



--7--------------------0-|----------------------------------|
-----7-----------------0-|----------------------------------|
--------7--------------0-|----------------------------------|
-----------------------2-|----------------------------------|
-----------------2-2-2-2-|--9-9-9-9-9-9-9-9-7-7-7-7-7-7-7-7-|
-----------------0-0-0-0-|--7-7-7-7-7-7-7-7-5-5-5-5-5-5-5-5-|



----------------------------------|----------------------------------|
----------------------------------|----------------------------------|
----------------------------------|--------------------------6-6-6-6-|
----------------------------------|----------9-9-9-9-7-7-7-7-7-7-7-7-|
--5-5-5-5-5-5-5-5-2-2-2-2-2-2-2-2-|--9-9-9-9-9-9-9-9-7-7-7-7-7-7-7-7-|
--3-3-3-3-3-3-3-3-0-0-0-0-0-0-0-0-|--7-7-7-7-7-7-7-7-5-5-5-5-5-5-5-5-|


[ Tab from: http://www.guitartabs.cc/tabs/a/afi/rabbits_are_roadkill_on_route_37_tab.html ]
----------3-3-3-3-0--------|--0--0--0--0--0--0------|
--3-3-3-3-3-3-3-3-0--------|--0--0--0--0--0--0------|
--4-4-4-4-4-4-4-4-0--------|--0--0--0--0--0--0------|
--5-5-5-5-5-5-5-5-2--------|--2--2--2--2--2--2------|
--5-5-5-5-5-5-5-5-2--------|--2--2--2--2--2--2------|
--3-3-3-3-3-3-3-3-0--------|--0--0--0--0--0--0------|



--7--7--7--7-7-5--5--5--5---|--5--5--5--5-5-7--7--7-----|
--7--7--7--7-7-5--5--5--5---|--5--5--5--5-5-7--7-----7--|
--7--7--7--7-7-6--6--6--6---|--6--6--6--6-6-7--7--------|
--9--9--9--9-9-7--7--7--7-0-|--7--7--7--7-7-9--9--------|
--9--9--9--9-9-7--7--7--7-0-|--7--7--7--7-7-9--9--------|
--7--7--7--7-7-5--5--5--5-0-|--5--5--5--5-5-7--7--------|



--7--7--7--7-7-5--5--5--5---|--5--5--5--5--7--5--0--5-7-|
--7--7--7--7-7-5--5--5--5---|--5--5--5--5--7--5--0--5-7-|
--7--7--7--7-7-6--6--6--6---|--6--6--6--6--7--6--0--6-7-|
--9--9--9--9-9-7--7--7--7-0-|--7--7--7--7--9--7--2--7-9-|
--9--9--9--9-9-7--7--7--7-0-|--7--7--7--7--9--7--2--7-9-|
--7--7--7--7-7-5--5--5--5-0-|--5--5--5--5--7--5--0--5-7-|



--7--7--7--7-7-5--5--5--5---|--5--5--5--5-5-7--7--7--7-7-|
--7--7--7--7-7-5--5--5--5---|--5--5--5--5-5-7--7--7--7-7-|
--7--7--7--7-7-6--6--6--6---|--6--6--6--6-6-7--7--7--7-7-|
--9--9--9--9-9-7--7--7--7-0-|--7--7--7--7-7-9--9--9--9-9-|
--9--9--9--9-9-7--7--7--7-0-|--7--7--7--7-7-9--9--9--9-9-|
--7--7--7--7-7-5--5--5--5-0-|--5--5--5--5-5-7--7--7--7-7-|



--7--7--7--7-7-5--5--5--5---|--5--5--5--5--7--5--0--5-7-|------------------|
--7--7--7--7-7-5--5--5--5---|--5--5--5--5--7--5--0--5-7-|------------------|
--7--7--7--7-7-6--6--6--6---|--6--6--6--6--7--6--0--6-7-|------------------|
--9--9--9--9-9-7--7--7--7-0-|--7--7--7--7--9--7--2--7-9-|------------------|
--9--9--9--9-9-7--7--7--7-0-|--7--7--7--7--9--7--2--7-9-|------------------|
--7--7--7--7-7-5--5--5--5-0-|--5--5--5--5--7--5--0--5-7-|------------------|



----7-----7------6-----6----|----9-----9------12-----12----|
--9-----9----9-9-----9----9-|--9-----9----9-9------9-----9-|
----------------------------|------------------------------|
----------------------------|------------------------------|
----------------------------|------------------------------|
----------------------------|------------------------------|



-----14-----14-----14-----14-----14-----|
--12-----12-----12-----12-----12-----12-|
----------------------------------------|
----------------------------------------|
----------------------------------------|
----------------------------------------|



--14-----14-----14-----14-----14-----14-|--5---3--5--7---------|
------12-----12-----12-----12-----12----|--5---3--5--7---------|
----------------------------------------|--6---4--6--7---------|
----------------------------------------|--7---5--7--9---------|
----------------------------------------|--7---5--7--9---------|
----------------------------------------|--5---3--5--7---------|



----3--5--7--10--------|--5---3--5--7---------|----3--5--7--10----5/---|
----3--5--7--10--------|--5---3--5--7---------|----3--5--7--10----5/---|
----4--6--7--11--------|--6---4--6--7---------|----4--6--7--11----6/---|
----5--7--9--12--------|--7---5--7--9---------|----5--7--9--12----7/---|
----5--7--9--12--------|--7---5--7--9---------|----5--7--9--12----7/---|
----3--5--7--10--------|--5---3--5--7---------|----3--5--7--10----5/---|



--5---3--5--7---------|----3--5--7--10--------|--5---3--5--7---------|
--5---3--5--7---------|----3--5--7--10--------|--5---3--5--7---------|
--6---4--6--7---------|----4--6--7--11--------|--6---4--6--7---------|
--7---5--7--9---------|----5--7--9--12--------|--7---5--7--9---------|
--7---5--7--9---------|----5--7--9--12--------|--7---5--7--9---------|
--5---3--5--7---------|----3--5--7--10--------|--5---3--5--7---------|

Solo (not too sure if its correct, but try it anyway)

--7/-----------|---------------------------------|
--7/-----------|--------7--------------------7-9-|
--7/-----------|--7r9-7----9-7-9-7-9-7-7-7-9-----|
--9/-----------|---------------------------------|
--9/-----------|---------------------------------|
--7/-----------|---------------------------------|



----------------------------------|----------------------------------|
----------7-----------------------|----------7-7-----7-7-------------|
--11--9-7---9-7-9-7-9-9-9-7-7-7-9-|------7-7-----7-7-----7-7-----7-7-|
----------------------------------|--9-9---------------------9-9-----|
----------------------------------|----------------------------------|
----------------------------------|----------------------------------|


V this is played quite 
--------------------------------|---------------------------------|
--------------------7-7---------|------7-7-------------7-7--------|
------------7-7-9-9-----7-7-9-9-|----------7-7-------------7-7----|
--7--7-9--9---------------------|--9-9---------7-x-7-x------------|
--------------------------------|-------------------------------0-|
--------------------------------|---------------------------------|



-----------------------------|---------------------------------|
-----7------------7---7------|------7-7----------7-7h10h7------|
--------7---0-------7---7----|----------7-7---------------7-7--|
-----------------------------|--9-9----------7-7---------------|
--7-----------0-0----------0-|---------------------------------|
-----------------------------|---------------------------------|


Then loud V 
-----------------------------|--7--7--7--7-7-5--5--5--5---|
-----7------------7---7------|--7--7--7--7-7-5--5--5--5---|
--------7---0-------7---7----|--7--7--7--7-7-6--6--6--6---|
-----------------------------|--9--9--9--9-9-7--7--7--7-0-|
--7-----------0-0----------0-|--9--9--9--9-9-7--7--7--7-0-|
-----------------------------|--7--7--7--7-7-5--5--5--5-0-|



--5--5--5--5-5-7--7--7--7-7-|--7--7--7--7-7-5--5--5--5---|
--5--5--5--5-5-7--7--7--7-7-|--7--7--7--7-7-5--5--5--5---|
--6--6--6--6-6-7--7--7--7-7-|--7--7--7--7-7-6--6--6--6---|
--7--7--7--7-7-9--9--9--9-9-|--9--9--9--9-9-7--7--7--7-0-|
--7--7--7--7-7-9--9--9--9-9-|--9--9--9--9-9-7--7--7--7-0-|
--5--5--5--5-5-7--7--7--7-7-|--7--7--7--7-7-5--5--5--5-0-|



--5--5--5--5--7--5--0--5-7-|--7--7--7--7-7-5--5--5--5---|
--5--5--5--5--7--5--0--5-7-|--7--7--7--7-7-5--5--5--5---|
--6--6--6--6--7--6--0--6-7-|--7--7--7--7-7-6--6--6--6---|
--7--7--7--7--9--7--2--7-9-|--9--9--9--9-9-7--7--7--7-0-|
--7--7--7--7--9--7--2--7-9-|--9--9--9--9-9-7--7--7--7-0-|
--5--5--5--5--7--5--0--5-7-|--7--7--7--7-7-5--5--5--5-0-|



--5--5--5--5-5-7--7--7--7-7-|--7--7--7--7-7-5--5--5--5---|
--5--5--5--5-5-7--7--7--7-7-|--7--7--7--7-7-5--5--5--5---|
--6--6--6--6-6-7--7--7--7-7-|--7--7--7--7-7-6--6--6--6---|
--7--7--7--7-7-9--9--9--9-9-|--9--9--9--9-9-7--7--7--7-0-|
--7--7--7--7-7-9--9--9--9-9-|--9--9--9--9-9-7--7--7--7-0-|
--5--5--5--5-5-7--7--7--7-7-|--7--7--7--7-7-5--5--5--5-0-|



--5--5--5--5--7--5--0--5-7-|--7--7--7--7-7-5--5--5--5---|
--5--5--5--5--7--5--0--5-7-|--7--7--7--7-7-5--5--5--5---|
--6--6--6--6--7--6--0--6-7-|--7--7--7--7-7-6--6--6--6---|
--7--7--7--7--9--7--2--7-9-|--9--9--9--9-9-7--7--7--7-0-|
--7--7--7--7--9--7--2--7-9-|--9--9--9--9-9-7--7--7--7-0-|
--5--5--5--5--7--5--0--5-7-|--7--7--7--7-7-5--5--5--5-0-|



--5--5--5--5-5-7--7--7--7-7-|--7--7--7--7-7-5--5--5--5---|
--5--5--5--5-5-7--7--7--7-7-|--7--7--7--7-7-5--5--5--5---|
--6--6--6--6-6-7--7--7--7-7-|--7--7--7--7-7-6--6--6--6---|
--7--7--7--7-7-9--9--9--9-9-|--9--9--9--9-9-7--7--7--7-0-|
--7--7--7--7-7-9--9--9--9-9-|--9--9--9--9-9-7--7--7--7-0-|
--5--5--5--5-5-7--7--7--7-7-|--7--7--7--7-7-5--5--5--5-0-|



--5--5--5--5--7--5--0--5--|--7/---------------||
--5--5--5--5--7--5--0--5--|--7/---------------||
--6--6--6--6--7--6--0--6--|--7/---------------||
--7--7--7--7--9--7--2--7--|--9/---------------||
--7--7--7--7--9--7--2--7--|--9/---------------||
--5--5--5--5--7--5--0--5--|--7/---------------||
Comments