Afi - Porphyria Chords & Tabs

 

Porphyria Chords & Tabs

Afi Chords & Tabs

Version: 1 Type: Bass Tab

Porphyria Bass Tab

ARTIST - AFI
SONG - PORPHYRIA CUTANEA TARDA
ALBUM - BLACK SAILS IN THE SUNSET
TUNING - STANDARD
TABBED BY 24fRETSoFfURY

INTRO
|----------------------------------------------------------------|
|----------------------------------------------------------------|
|-2222222222222222-----------------------------------------------|
|------------------0-0-------------------------------------------|

VERSE
|----------------------------------------------------------------|
|----------------------------------------------------------------|
|-------------------3-555----------------------------------------|
|-00000-6-5-33333333-----3-555-6666-3333-------------------------|

|----------------------------------------------------------------|
|----------------------------------------------------------------|
|--------------------3-5------------------77777777---------------|
|-00000-6-5-33333333-----2-3-5-3-00000000------------------------|

CHORUS
|----------------------------------------------------------------|
|----------------------------------------------------------------|
|-3333-5555-3-5-----------3333-5555------77----------------------|
|---------------3-2-0000------------0000-------------------------|

|----------------------------------------------------------------|
|----------------------------------------------------------------|
|-3333-5555---------------7--7---5555-7777-999999-14/------------|
|-----------3333-0000---00-00------------------------------------|

VERSE
|----------------------------------------------------------------|
|----------------------------------------------------------------|
|-------------------3-555----------------------------------------|
|-00000-6-5-33333333-----3-555-6666-3333-------------------------|

|----------------------------------------------------------------|
|----------------------------------------------------------------|
|--------------------3-5------------------77777777---------------|
|-00000-6-5-33333333-----2-3-5-3-00000000------------------------|
[ Tab from: http://www.guitartabs.cc/tabs/a/afi/porphyria_btab.html ]
CHORUS
|----------------------------------------------------------------|
|----------------------------------------------------------------|
|-3333-5555-3-5-----------3333-5555------77----------------------|
|---------------3-2-0000------------0000-------------------------|

|----------------------------------------------------------------|
|----------------------------------------------------------------|
|-3333-5555-----------7--7---5-7b-5------------------------------|
|-----------3333-0000--00-00--------00000000---------------------|

BRIDGE
|----------------------------------------------------------------|
|----------------------------------------------------------------|
|---7---------------------7----------5-7-5-----------------------|
|-0--6-5-3-35-0000------0--6-5-3-3-5-------7---------------------|

|----------------------------------------------------------------|
|----------------------------------------------------------------|
|---7---------------------7--------------------------------------|
|-0--6-5-3-35-0000------0--6-5-3-3-5-000000-3-5-7777777777777----|

|----------------------------------------------------------------|
|----------------------------------------------------------------|
|-5555-7777-999999-14\-------------------------------------------|
|----------------------------------------------------------------|

END VERSE
|----------------------------------------------------------------|
|----------------------------------------------------------------|
|------7-5-333333-5--------------5-7-5---------------------------|
|-0000-------------333-5555-0000-------7-------------------------|

|------------------------------------------7---7-9---------------|
|-------------------------------------9-10---9-------------------|
|------7-5-333333-5--------------7h10----------------------------|
|-0000-------------333-5555-0000---------------------------------|

|----------------------------------------------------------------|
|----------------------------------------------------------------|
|------7-5-333333-5--------------5-7-5---------------------------|
|-0000-------------333-5555-0000-------7-------------------------|

|----------------------------------------------------------------|
|----------------------------------------------------------------|
|------7-5-333333-5----5555---------00-7-------------------------|
|-0000-------------333------000-7--------------------------------|

ONE OF THE BEST AFI SONGS EVER.