Afi - Ph Low Chords & Tabs

 

Ph Low Chords & Tabs

Afi Chords & Tabs

Version: 1 Type: Tab 0 ratings
1 star 2 stars 3 stars 4 stars 5 stars
comments

Ph Low Tab

   
Intro:
e-|---------------------------------|
B-|---------------------------------|
G-|---------------------------------|
D-|--------7-12-12--------7-12-12---|
A-|-7-9-10-5-10-10-7-9-10-5-10-10-7-|
E-|-5-7--8---------5-7--8---------5-|

Verse:
e-|-----------------------------------------------------------------------------|
B-|-----------------------------------------------------------------------------|
G-|-----------------------------------------------------------------------------|
D-|---------9-9-9-9-----------------------------------------7-7-7-7-12-12-12-12-|
A-|-7-7-7-7-7-7-7-7-9-9-9-9-9-9-9-9-10-10-10-10-10-10-10-10-5-5-5-5-10-10-10-10-|
E-|-5-5-5-5---------7-7-7-7-7-7-7-7--8--8--8--8--8--8--8--8---------------------|

Chorus
e-|-------------------------------|
B-|-------------------------------|
G-|-------------------------------|
D-|---10-9---10-9----10-9-7-12-12-|
A-|-7--8-7-9--8-7-10--8-7-5-10-10-|
E-|-5------7-------8--------------|
[ Tab from: http://www.guitartabs.cc/tabs/a/afi/ph_low_tab.html ]
Bridge:
e-|-------------------------------------------------------------------------|
B-|-------------------------------------------------------------------------|
G-|-------------------------------------------------------------------------|
D-|-10-10-10-10-10-10-10-10-10-10-10-10-12-12-12-12-------------------------|
A-|--8--8--8--8--8--8--8--8--8--8--8--8-10-10-10-10-7-7-7-7-7-7-7-7-7-7-7-7-|
E-|-------------------------------------------------5-5-5-5-5-5-5-5-5-5-5-5-|

e-|-------------------------------------------------------------------------|
B-|-------------------------------------------------------------------------|
G-|-------------------------------------------------------------------------|
D-|---------10-10-10-10-10-10-10-10-10-10-10-10-12-12-12-12-----------------|
A-|-7-7-7-7--8--8--8--8--8--8--8--8--8--8--8--8-10-10-10-10-7-7-7-7-7-7-7-7-|
E-|-5-5-5-5-------------------------------------------------5-5-5-5-5-5-5-5-|

e-|-------------------------------------------------------------------------|
B-|-------------------------------------------------------------------------|
G-|-------------------------------------------------------------------------|
D-|-9-9-9-9-9-9-9-9-10-10-10-10-10-10-10-10-10-10-10-10-12-12-12-12---------|
A-|-7-7-7-7-7-7-7-7--8--8--8--8--8--8--8--8--8--8--8--8-10-10-10-10-etc-----|
E-|-------------------------------------------------------------------------|

-------------------------------------------------------------------------------
Comments