Afi - Paper Airplanes Makeshift Wings Chords & Tabs

 

Paper Airplanes Makeshift Wings Chords & Tabs

Afi Chords & Tabs

Version: 2 Type: Tab 0 ratings
1 star 2 stars 3 stars 4 stars 5 stars
comments

Paper Airplanes Makeshift Wings Tab

   
 Intro
   
   
    G5/D5          G5/D  Dm
    Gtr I
||--------------------------|
||o-------------------------|
||--12s14-14-14-14-12-12-10-|
||--------------------------|
||o-10s12-12-12-12-10-10--8-|
||---0--0--0--0--0--0--0--0-|


                              1.
                  G5/D           D5          G5/D  D
|---------------------------|-------------------------|
|---------------------------|-------------------------|
|-(10)-10-10-(10)S12-12-12--|-12s14-14-14-14-12-12-11-|
|---------------------------|-------------------------|
|--(8)--8--8--(8)S10-10-10--|-10s12-12-12-12-10-10--9-|
|--(0)--0--0--(0)--0--0--0--|--0--0--0--0--0--0--0--0-|


                            2.
             To Coda
                            C5 D5    C5 D5    C5 D5            D5
                                                               PM------|
|------------------------||-------------------------|--------------------||
|-----------------------o||-------------------------|--------------------||
|-(11)-11-11--11-11-11---||-------------------------|--------------------||
|------------------------||-10h12-12-10h12-12-10h12-|-12--(12)-0-0-0-0-0-||
|--(9)--9--9---9--9--9--o||-10h12-12-10h12-12-10h12-|-12--(12)-0-0-0-0-0-||
|--(0)--0--0---0--0--0---||-10h12-12-10h12-12-10h12-|-12--(12)-0-0-0-0-0-||


   Verse
    
    Bb5                                         C5          D5
||---------------|-----------------|--------------|------------------|
||o--------------|-----------------|--------------|------------------|
||--3--3--3-3--3-|-(3)-3-3-3--3-3--|-3--3--3-3S=5-|-(5)-5-5S7--7-7---|
||--3--3--3-3--3-|-(3)-3-3-3--3-3--|-3--3--3-3S=5-|-(5)-5-5S7--7-7---|
||o-1--1--1-1--1-|-(1)-1-1-1--1-1--|-1--1--1-1S=3-|-(3)-3-3S5--5-5---|
||---------------|-----------------|--------------|------------------|


                                    1.
                                                            C5
|---------------|-----------------|---------------|-------------------||
|---------------|-----------------|---------------|------------------o||
|-7--7-7-7-7--7-|-(7)-7-7--7-7-7--|-7--7-7-7-7--7-|-(7)-7-7S5-5-5-5---||
|-7--7-7-7-7--7-|-(7)-7-7--7-7-7--|-7--7-7-7-7--7-|-(7)-7-7S5-5-5-5---||
|-5--5-5-5-5--5-|-(5)-5-5--5-5-5--|-5--5-5-5-5--5-|-(5)-5-5S3-3-3-3--o||
|---------------|-----------------|---------------|-------------------||


                                     Pre-Chorus
  2.
                                      Bb5    C5   D5           Bb5  C5
                                         PM|    PM        PM      PM
|---------------|------------------||---------------|-----------------|
|---------------|------------------||---------------|-----------------|
|-7--7-7-7-7--7-|-(7)-7-7-7-7-7-7--||-3--3-3-5--5-7-|-(7)-7-7--3--3-5-|
|-7--7-7-7-7--7-|-(7)-7-7-7-7-7-7--||-3--3-3-5--5-7-|-(7)-7-7--3--3-5-|
|-5--5-5-5-5--5-|-(5)-5-5-5-5-5-5--||-1--1-1-3--3-5-|-(5)-5-5--1--1-3-|
|---------------|------------------||---------------|-----------------|


                                      Bb5    C5   D5           Bb5  C5
      PM      PM        PM   PM|         PM|    PM        PM      PM
|-----------------|-----------------|---------------|-----------------|
|-----------------|-----------------|---------------|-----------------|
|-(5)-5-5--5--5-5-|-(5)-5-5--5-5-5--|-3--3-3-5--5-7-|-(7)-7-7--3--3-5-|
|-(5)-5-5--5--5-5-|-(5)-5-5--5-5-5--|-3--3-3-5--5-7-|-(7)-7-7--3--3-5-|
|-(3)-3-3--3--3-3-|-(3)-3-3--3-3-3--|-1--1-1-3--3-5-|-(5)-5-5--1--1-3-|
|-----------------|-----------------|---------------|-----------------|


                                        Bb5    C5   D5           Bb5  C5
      PM      PM
|-----------------|-------------------|---------------|-----------------|
|-----------------|-------------------|---------------|-----------------|
|-(5)-5-5--5--5-5-|-(5)-5-5-5-5-5-5-5-|-3--3-3-5--5-7-|-(7)-7-7--3--3-5-|
|-(5)-5-5--5--5-5-|-(5)-5-5-5-5-5-5-5-|-3--3-3-5--5-7-|-(7)-7-7--3--3-5-|
|-(3)-3-3--3--3-3-|-(3)-3-3-3-3-3-3-3-|-1--1-1-3--3-5-|-(5)-5-5--1--1-3-|
|-----------------|-------------------|---------------|-----------------|
|
| Gtr II
|-----------------|-----------5-5-----|---------------|-----------------|
|-----------------|--6--6---------6-6-|---------------|-----------------|
|-----------------|-------7-7---------|---------------|-----------------|
|-----------------|-------------------|---------------|-----------------|
|-----------------|-------------------|---------------|-----------------|
|-----------------|-------------------|---------------|-----------------|


                                    Bb5    C5   D5           Bb5  C5
|---------------|-----------------|---------------|-----------------|
|---------------|-----------------|---------------|-----------------|
|-5-5-5--5--5-5-|-(5)-5-5--5-5-5--|-3--3-3-5--5-7-|-(7)-7-7--3--3-5-|
|-5-5-5--5--5-5-|-(5)-5-5--5-5-5--|-3--3-3-5--5-7-|-(7)-7-7--3--3-5-|
|-3-3-3--3--3-3-|-(3)-3-3--3-3-3--|-1--1-1-3--3-5-|-(5)-5-5--1--1-3-|
|---------------|-----------------|---------------|-----------------|


|---------------|-------------------||
|---------------|-------------------||
|-5-5-5--5--5-5-|-(5)-5-5-5-5-5-5-5-||
|-5-5-5--5--5-5-|-(5)-5-5-5-5-5-5-5-||
|-3-3-3--3--3-3-|-(3)-3-3-3-3-3-3-3-||
|---------------|-------------------||


   Chorus
    D5         F5                    Bb5        G5
||---------------|-----------------|--------------|------------------|
||o--------------|-----------------|--------------|------------------|
||---------------|-----------------|-3--3--3--3---|------------------|
||--0--0--0--0h3-|-(3)-3-3--3-3-3--|-3--3--3--3-5-|-(5)-5-5--5-5-5---|
||o-0--0--0--0h3-|-(3)-3-3--3-3-3--|-1--1--1--1-5-|-(5)-5-5--5-5-5---|
||--0--0--0--0h3-|-(3)-3-3--3-3-3--|------------5-|-(5)-5-5--5-5-5---|


                                                       D.S. al Coda
                                                       D.S. al Coda
  D5         C5                    Bb5
|--------------|-----------------|-----------------|------------------||
|--------------|-----------------|-----------------|-----------------o||
|------------5-|-5-5-5-5-5-5-5-5-|-3-3-3-3-3-3-3-3-|-3-3-3-3-3-3-3-3--||
|-0--0--0--0-5-|-5-5-5-5-5-5-5-5-|-3-3-3-3-3-3-3-3-|-3-3-3-3-3-3-3-3--||
|-0--0--0--0-3-|-3-3-3-3-3-3-3-3-|-1-1-1-1-1-1-1-1-|-1-1-1-1-1-1-1-1-o||
|-0--0--0--0---|-----------------|-----------------|------------------||


 Post-Chorus
  &
  G5/D5          G5/D  Dm                   G5/D
|-------------------------|---------------------------|
|-------------------------|---------------------------|
|-12s14-14-14-14-12-12-10-|-(10)-10-10-(10)S12-12-12--|
|-------------------------|---------------------------|
|-10s12-12-12-12-10-10--8-|--(8)--8--8--(8)S10-10-10--|
|--0--0--0--0--0--0--0--0-|--(0)--0--0--(0)--0--0--0--|


                             D.S.S. al Dbl. Coda
  C5 D5    C5 D5    C5 D5      G5/D5
|-------------------------|----------------------||
|-------------------------|----------------------||
|-------------------------|----12s14-14-14-14\---||
|-10h12-12-10h12-12-10h12-|-12-------------------||
|-10h12-12-10h12-12-10h12-|-12-10s12-12-12-12\---||
|-10h12-12-10h12-12-10h12-|-12--0--0--0--0--0----||

[ Tab from: http://www.guitartabs.cc/tabs/a/afi/paper_airplanes_makeshift_wings_tab_ver_2.html ]
   Break
 
                                                                 D5
    Gtr I
||-----------------|----------------|----------------|-----------------------||
||o----------------|----------------|----------------|----------------------o||
||-----------------|----------------|----------------|-----------------------||
||--3--3p2--(2)-2--|-5--5p4--(4)-4--|-3--3p2--(2)-2--|-----------------------||
||o----------------|----------------|----------------|-3--2h3h5--------(5)--o||
||-----------------|----------------|----------------|-----------------------||
|
|   Gtr II
|                                                                PM|
||-----------------|----------------|----------------|-----------------------||
||o----------------|----------------|----------------|----------------------o||
||-----------------|----------------|----------------|-----------------------||
||-----------------|----------------|----------------|-----------0-0-0-------||
||o----------------|----------------|----------------|-----------0-0-0------o||
||-----------------|----------------|----------------|-----------0-0-0-------||


                                                     D5
|----------------|----------------|----------------|--------------------||
|----------------|----------------|----------------|--------------------||
|----------------|----------------|----------------|--------------------||
|-7--7p5--(5)-5--|-5--5p4--(4)-4--|-7--7p5--(5)-5--|--------------------||
|----------------|----------------|----------------|-3---2h3h5------(5)-||
|----------------|----------------|----------------|--------------------||
|
|                                                    PM--------|
|----------------|----------------|----------------|--------------------||
|----------------|----------------|----------------|--------------------||
|----------------|----------------|----------------|--------------------||
|----------------|----------------|----------------|-0-0-0---0-0--0-----||
|----------------|----------------|----------------|-0-0-0---0-0--0-----||
|----------------|----------------|----------------|-0-0-0---0-0--0-----||


   Bridge
    Bb5          C5  F5               G5/D      DsusD
||-----------------|----------------|------------------------------|
||o----------------|----------------|------------------------------|
||--3----(3)-3-3-5-|----------------|-12--12-12S9-9S11-11-11-11-11-|
||--3----(3)-3-3-5-|-3----(3)-3-3-3-|------------------------------|
||o-1----(1)-1-1-3-|-3----(3)-3-3-3-|-10--10-10S7-7S=9--9--9--9--9-|
||-----------------|-3----(3)-3-3-3-|--0---0--0-0-0--0--0--0--0--0-|


  1.                                   2.
  G5/D           D                     G5/D           D5
|-----------------------------------||-------------------------------------|
|----------------------------------o||-------------------------------------|
|-12-12-12-12-12-11-11-11-11-11-11--||-12-12-12-12-12-14-14-14-14-14-14-14-|
|-----------------------------------||-------------------------------------|
|-10-10-10-10-10--9--9--9--9--9--9-o||-10-10-10-10-10-12-12-12-12-12-12-12-|
|--0--0--0--0--0--0--0--0--0--0--0--||--0--0--0--0--0--0--0--0--0--0--0--0-|


    C5 D5             C5      D5 D#5D5 C5 D5     C5 D5   C5 D5
                                              3x
||--------------------------------------------||-------------------||
||o------------------------------------------o||-------------------||
||--------------------------------------------||-------------------||
||--10h12-12-12-12-12-10-(10)h12-13p12-10h12--||-10-12---10-12-----||
||o-10h12-12-12-12-12-10-(10)h12-13p12-10h12-o||-10-12---10-12-----||
||--10h12-12-12-12-12-10-(10)h12-13p12-10h12--||-10-12---10-12-----||


   Out-Chorus
    D5         F5                    Bb5        G5
||---------------|-----------------|--------------|------------------|
||o--------------|-----------------|--------------|------------------|
||---------------|-----------------|-3--3--3--3---|------------------|
||--0--0--0--0h3-|-(3)-3-3--3-3-3--|-3--3--3--3-5-|-(5)-5-5--5-5-5---|
||o-0--0--0--0h3-|-(3)-3-3--3-3-3--|-1--1--1--1-5-|-(5)-5-5--5-5-5---|
||--0--0--0--0h3-|-(3)-3-3--3-3-3--|------------5-|-(5)-5-5--5-5-5---|


  D5         C5                    Bb5
|--------------|-----------------|-----------------|------------------||
|--------------|-----------------|-----------------|-----------------o||
|------------5-|-5-5-5-5-5-5-5-5-|-3-3-3-3-3-3-3-3-|-3-3-3-3-3-3-3-3--||
|-0--0--0--0-5-|-5-5-5-5-5-5-5-5-|-3-3-3-3-3-3-3-3-|-3-3-3-3-3-3-3-3--||
|-0--0--0--0-3-|-3-3-3-3-3-3-3-3-|-1-1-1-1-1-1-1-1-|-1-1-1-1-1-1-1-1-o||
|-0--0--0--0---|-----------------|-----------------|------------------||


  D5            F5                      Bb5           G5
|-----------------|-------------------|-----------------|-------------------|
|-----------------|-------------------|-----------------|-------------------|
|-----------------|-------------------|-3---3---3---3---|-------------------|
|-0---0---0---0h3-|-(3)-3-3---3-3-3---|-3---3---3---3-5-|-(5)-5-5---5-5-5---|
|-0---0---0---0h3-|-(3)-3-3---3-3-3---|-1---1---1---1-5-|-(5)-5-5---5-5-5---|
|-0---0---0---0h3-|-(3)-3-3---3-3-3---|---------------5-|-(5)-5-5---5-5-5---|
|
| Gtr II
|---------5-5-----|-----------5-5-----|---------5-5-----|-----------5-5-----|
|-6-6---------6---|--6--6---------6---|-6-6---------6---|--6--6---------6---|
|-----7-7-------7-|-------7-7-------7-|-----7-7-------7-|-------7-7-------7-|
|-----------------|-------------------|-----------------|-------------------|
|-----------------|-------------------|-----------------|-------------------|
|-----------------|-------------------|-----------------|-------------------|


  D5            C5                    Bb5
|-----------------|-----------------|-----------------|-----------------|
|-----------------|-----------------|-----------------|-----------------|
|---------------5-|-5-5-5-5-5-5-5-5-|-3-3-3-3-3-3-3-3-|-3-3-3-3-3-3-3-3-|
|-0---0---0---0-5-|-5-5-5-5-5-5-5-5-|-3-3-3-3-3-3-3-3-|-3-3-3-3-3-3-3-3-|
|-0---0---0---0-3-|-3-3-3-3-3-3-3-3-|-1-1-1-1-1-1-1-1-|-1-1-1-1-1-1-1-1-|
|-0---0---0---0---|-----------------|-----------------|-----------------|
|
|---------5-5-----|---------5-5-----|-5-5-5-5-3-3-3-3-|-----------------|
|-6-6---------6---|-6-6---------6---|-----------------|-6-6-6-6-5-5-5-5-|
|-----7-7-------7-|-----7-7-------7-|-----------------|-----------------|
|-----------------|-----------------|-----------------|-----------------|
|-----------------|-----------------|-----------------|-----------------|
|-----------------|-----------------|-----------------|-----------------|


  D5         F5                    Bb5        G5
|--------------|-----------------|--------------|-----------------|
|--------------|-----------------|--------------|-----------------|
|--------------|-----------------|-3--3--3--3---|-----------------|
|-0--0--0--0h3-|-(3)-3-3--3-3-3--|-3--3--3--3-5-|-(5)-5-5--5-5-5--|
|-0--0--0--0h3-|-(3)-3-3--3-3-3--|-1--1--1--1-5-|-(5)-5-5--5-5-5--|
|-0--0--0--0h3-|-(3)-3-3--3-3-3--|------------5-|-(5)-5-5--5-5-5--|


  D5         C5                    Bb5
                                                       PM----|
|--------------|-----------------|-----------------|--------------||
|--------------|-----------------|-----------------|--------------||
|------------5-|-5-5-5-5-5-5-5-5-|-3-3-3-3-3-3-3-3-|-3-3-3-3-3----||
|-0--0--0--0-5-|-5-5-5-5-5-5-5-5-|-3-3-3-3-3-3-3-3-|-3-3-3-3-3----||
|-0--0--0--0-3-|-3-3-3-3-3-3-3-3-|-1-1-1-1-1-1-1-1-|-1-1-1-1-1----||
|-0--0--0--0---|-----------------|-----------------|--------------||


   Outro
    G5/D5          G5/D  Dm
||--------------------------|
||o-------------------------|
||--12s14-14-14-14-12-12-10-|
||--------------------------|
||o-10s12-12-12-12-10-10--8-|
||---0--0--0--0--0--0--0--0-|


                              1.
                  G5/D        G5/D5          G5/D  D
|---------------------------|-------------------------|
|---------------------------|-------------------------|
|-(10)-10-10-(10)S12-12-12--|-12s14-14-14-14-12-12-11-|
|---------------------------|-------------------------|
|--(8)--8--8--(8)S10-10-10--|-10s12-12-12-12-10-10--9-|
|--(0)--0--0--(0)--0--0--0--|--0--0--0--0--0--0--0--0-|


                            2.
                            C5 D5    C5 D5    C5 D5        D5
                                                           PM----|
|------------------------||-------------------------|---------------*|
|-----------------------o||-------------------------|---------------*|
|-(11)-11-11--11-11-11---||-------------------------|---------------*|
|------------------------||-10h12-12-10h12-12-10h12-|-12---0-0-0-0--*|
|--(9)--9--9---9--9--9--o||-10h12-12-10h12-12-10h12-|-12---0-0-0-0--*|
|--(0)--0--0---0--0--0---||-10h12-12-10h12-12-10h12-|-12---0-0-0-0--*|
Comments