Afi - Of Greetings And Goodbyes Chords & Tabs

 

Of Greetings And Goodbyes Chords & Tabs

Afi Chords & Tabs

Version: 3 Type: Tab 0 ratings
1 star 2 stars 3 stars 4 stars 5 stars
comments

Of Greetings And Goodbyes Tab

AFI-Of Greeting and Goodbyes

 Intro
e|------------------------------------|
B|------------------------------------|
G|-9-57-4--7-46-------9-57-4--7-46----|
D|-9-57-5--7-57-2-----9-57-5--7-57-4--|
A|-7-35-5--5-57-2-----7-35-5--5-57-5--|
E|-7-35-3--5-35-0-12/-7-35-3--5-35-2--|

       Verse
e|----|------------------------|
B|----|------------------------|
G|12--|----4--7--------4--7----|
D|12--|-2--5--7--2-----5--7----|
A|10--|-2--5--5--2-----5--5----|
E|10--|-0--3--5--0-----3--5----|
[ Tab from: http://www.guitartabs.cc/tabs/a/afi/of_greetings_and_goodbyes_tab_ver_3.html ]
 Chorus
e|-------------------------|-----|
B|-------------------------|-----|
G|----5--7--9-----4--7--5--|-12--|
D|-2--5--7--9--2--5--7--5--|-----|
A|-2--3--5--7--2--5--5--3--|-10--|
E|-0--3--5--7--0--3--5--3--|-----|

 Second Verse/Solo
e|-777---------------777---------888777-|
B|----888101010---------888101010-------|
G|-------------777999-------------------|
D|--------------------------------------|
A|--------------------------------------|
E|--------------------------------------|

 Breakdown
e|-------------------------------|-----------|
B|-------------------------------|-----------|
G|--4-4-------9------10--------9-|-7-----12--|
D|-------------------------------|-7-----12--|
A|-3----------7-------8--------7-|-5-----10--|
E|---3--0-00-0--0-00-0---0-00-0--|-5-----10--|
Comments