Afi - Of Greetings And Goodbyes Chords & Tabs

 

Of Greetings And Goodbyes Chords & Tabs

Afi Chords & Tabs

Version: 2 Type: Tab 0 ratings
1 star 2 stars 3 stars 4 stars 5 stars
comments

Of Greetings And Goodbyes Tab

Band: 		AFI
Song: 		Of Greetings and Goodbyes
Tabbed by:	Drew
Email:		funeral_in_carpathia13@yahoo.com
Tunning:	Standard - Distroted
Comments:	Yes i know Jade plays bar chords, but
		this way is still correct and is easier to
		play.  

Not exact timing, so listen to song to figure rythem


INTRO
1|-------------------------------------------|
2|-------------------------------------------|
3|-------------------------------------------|
4|--9--9--9-5-5--5--5--5--7--7--5/7-2--2--2--|
5|--7--7--7-3-5--5--5--5--5--5--5/7-2--2--2--|
6|--7--7--7-3-3--3--3--3--5--5--3/5-0--0--0--|

1|-------------------------------------------|
2|-------------------------------------------|
3|-------------------------------------------|
4|--9--9--9-5-5--5--5--5--7--7--5/7----------|
5|--7--7--7-3-5--5--5--5--5--5--5/7----------|
6|--7--7--7-3-3--3--3--3--5--5--3/5-3--3--3--|


VERSE 1
1st part just vocals
2nd part - again not correct timing nor rythem
1|-------------------------------------------|
2|-------------------------------------------|
3|-------------------------------------------|
4|--9-9-9-9--5-5-5-5--7-7-7-7--9-9-9-9-------|
5|--7-7-7-7--5-5-5-5--5-5-5-5--7-7-7-7-------|
6|--7-7-7-7--3-3-3-3--5-5-5-5--7-7-7-7-------|

1|-------------------------------------------|
2|-------------------------------------------|
3|-------------------------------------------|
4|--9-9-9-9--5-5-5-5--7-7-7-7-7-7-7-7-7-7-7--|
5|--7-7-7-7--5-5-5-5--5-5-5-5-5-5-5-5-5-5-5--|
6|--7-7-7-7--3-3-3-3--5-5-5-5-5-5-5-5-5-5-5--|


CHORUS - 2x
1|-------------------------------------------|
2|-------------------------------------------|
3|-------------------------------------------|
4|--9-9-9-9--5-5-5-5--7-7-7-7--9-9-9-9-------|
5|--7-7-7-7--3-3-3-3--5-5-5-5--7-7-7-7-------|
6|--7-7-7-7--3-3-3-3--5-5-5-5--7-7-7-7-------|

1|-------------------------------------------|
2|-------------------------------------------|
3|-------------------------------------------|
4|--9-9-9-9--5-5-5-5--7-7-7-7--5-5-5-5-------|
5|--7-7-7-7--5-5-5-5--5-5-5-5--3-3-3-3-------|
6|--7-7-7-7--3-3-3-3--5-5-5-5--3-3-3-3-------|
[ Tab from: http://www.guitartabs.cc/tabs/a/afi/of_greetings_and_goodbyes_tab_ver_2.html ]
After 2x add this
6|-------------------------------------------|
5|-------------------------------------------|
4|-------------------------------------------|
3|--12121212121212121212121212121212---------|
2|--10101010101010101010101010101010---------|
1|-------------------------------------------|


Repeat INTRO


VERSE 2
1|-------------------------------------------
2|--121212-----------------------------121212
3|---------121212-141414---------------------
4|-----------------------121212-141414-------
5|-------------------------------------------
6|-------------------------------------------

1--------------------------------------------|
2-----------------131313-121212--------------|
3---121212-141414----------------------------|
4--------------------------------------------|
5--------------------------------------------|
6--------------------------------------------|

1|-------------------------------------------|
2|-------------------------------------------|
3|-------------------------------------------|
4|--9-9-9-9--5-5-5-5--7-7-7-7--9-9-9-9-------|
5|--7-7-7-7--5-5-5-5--5-5-5-5--7-7-7-7-------|
6|--7-7-7-7--3-3-3-3--5-5-5-5--7-7-7-7-------|

1|-------------------------------------------|
2|-------------------------------------------|
3|-------------------------------------------|
4|--9-9-9-9--5-5-5-5--7-7-7-7-7-7-7-7-7-7-7--|
5|--7-7-7-7--5-5-5-5--5-5-5-5-5-5-5-5-5-5-5--|
6|--7-7-7-7--3-3-3-3--5-5-5-5-5-5-5-5-5-5-5--|


repeat CHORUS


after CHORUS add this
6|-------------------------------------------|
5|--121212-----------------------------------|
4|--------121212-141414----------------------|
3|----------------------121212-2-------------|
2|-----------------------------2-HOLD--------|
1|-----------------------------0-------------|


BRIDGE - First 4 bass and drum bars then...
6|-------------------------------------------|
5|-------------------------------------------|
4|-------------------------------------------|
3|----5--5--9-----5--5--9-----777777777777---|
2|----3--5--7-----3--5--7-----555555555555---|
1|----3--3--7-----3--3--7-----555555555555---|


Repeat CHORUS 2x
Add first part of Verse 2 towards the end

end and subtain E5 powerchord



yes its the whole song and alot better intro then
that other song - i probably left something out, 
but for the most part, its all there

magnifico
Comments