Afi - Ny Quil Chords & Tabs

 

Ny Quil Chords & Tabs

Afi Chords & Tabs

Version: 1 Type: Bass Tab 0 ratings
1 star 2 stars 3 stars 4 stars 5 stars
comments

Ny Quil Bass Tab

Intro:


G----------------------------------------------------------------------
D----------------------------------------------------------------------
A-7--5--7--5--7-7-7-7-7-7-7-7-7-7--5-5-5-5-5-5-5-5-5--7-7-7-7-7-7-7-7-7
E----------------------------------------------------------------------

G----------------------------------------------------------------------
D----------------------------------------------------------------------
A-5-5-5-5-5-5-5-5-5--7-7--5-5-5-5--2-2-2-------------------------------
E----------------------------------------------------------------------

Verse:

G----------------------------------------------------------------------
D----------------------------------------------------------------------
A-2-0-5-2--2-0-5-2--2-2-2-2-2-2-2-2--0-0-0-0-0-0-0-0--5-5-5-5-5-5-5-5--
E----------------------------------------------------------------------

G----------------------------------------------------------------------
D----------------------------------------------------------------------
A-2-2-2-2-2-2-2-2--2-2-2-2-2-2-2-2--0-0-0-0-0-0-0-0--5-5-5-5-5-5-5-5---
E----------------------------------------------------------------------
[ Tab from: http://www.guitartabs.cc/tabs/a/afi/ny_quil_btab.html ]
G----------------------------------------------------------------------
D----------------------------------------------------------------------
A-2-2-2-2-2-2-2-2------------------------------------------------------
E----------------------------------------------------------------------

Chorus:

G----------------------------------------------------------------------
D----------------------------------------------------------------------
A-9-9-9--5-5-5--7-7-7---------9-9-9--5-5-5--7--7--7--7--7--7-----------
E----------------------5-5-5-------------------------------------------

G----------------------------------------------------------------------
D----------------------------------------------------------------------
A-9-9-9--5-5-5--7-7-7---------9-9-9--5-5-5-----------------------------
E-----------------------5-5-5------------------------------------------

G----------------------------------------------------------------------
D----------------------------------------------------------------------
A-7--7--7--7-5---7--7--7--7-5---7--7--7--7-5-5--2----------------------
E----------------------------------------------------------------------

Repeat verse
Repeat chorus

Bridge:

G----------------------------------------------------------------------
D----------------------------------------------------------------------
A-2-2-2-2-2-2-2-2--0-0-0-0-0-0-0-0--5-5-5-5-5-5-5-5--2-2-2-2-2-2-2-2---X3
E----------------------------------------------------------------------

Repeat chorus
Comments