Afi - Morningstar Chords & Tabs

 

Morningstar Chords & Tabs

Afi Chords & Tabs

Version: 6 Type: Tab 0 ratings
1 star 2 stars 3 stars 4 stars 5 stars
comments

Morningstar Tab

   
-------------------------------------------------------------------------------
			     Morningstar - AFI
-------------------------------------------------------------------------------
Tabbed by:rockr_01
Email:afmondragonb@aol.com

Tuning:EADGBe
Intro (clean)
e|---------------------------------------------------------------------------|
B|---------------------------------------------------------------------------|
G|---------------------------------------------------------------------------|
D|---------------------------------------------------------------------------|
A|-14-14-14-14-14-14-14-14-14-14-14-14-14-14-14-0-11-11-11-11-11-11-11-11-11-|
E|-12-12-12-12-12-12-12-12-11-11-11-11-11-11-11-0--9--9--9--9--9--9--9--9--9-|
P.M..........................................................................

e|---------------------------------------------------------------------------|
B|---------------------------------------------------------------------------|
G|---------------------------------------------------------------------------|
D|---------------------------------------------------------------------------|
A|-11-11-11-11-11-11-0-7-7-7-7-7-7-7-0-9-9-9-9-9-9-9-0-11-11-11-11-11-11-11--|
E|--9--9--9--9--9--9-0-5-5-5-5-5-5-5-0-7-7-7-7-7-7-7-0--9--9--9--9--9--9--9--|
P.M..........................................................................
                               
e|---------------------------|-----------------------------------------------|
B|go back to start,repeat again|---------------------------------------------|
G|---------------------------|-----------------------------------------------|
D|---------------------------|-----------------------------------------------|
A|-11-11-11-11-11-11-11-11--0|14-14-14-14-14-14-14-14-14-14-14-14-14-14-14-0-|
E|--9--9--9--9--9--9--9--9--0|12-12-12-12-12-12-12-12-11-11-11-11-11-11-11-0-|
P.M........................................................................

e|---------------------------------------------------------------------------|
B|---------------------------------------------------------------------------|
G|---------------------------------------------------------------------------|
D|---------------------------------------------------------------------------|
A|-11-11-11-11-11-11-11-11-11-11-11-11-11-11-11-0-7-7-7-7-7-7-7-0-9-9-9-9-9--|
E|--9--9--9--9--9--9--9--9--9--9--9--9--9--9--9-0-5-5-5-5-5-5-5-0-7-7-7-7-7--|
P.M........................................................................

e|---------------------------------------------------------------------------|
B|---------------------------------------------------------------------------|
G|---------------------------------------------------------------------------|
D|---------------------------------------------------------------------------|
A|-9-9-----5-----7-----9-9-9-9-9-9-9-9-0-------------------------------------|
E|-7-7-0-7---7-7---7-7---7-7-7-7-7-7-7-0-------------------------------------|
P.M...[=let ring=======]

Chorus
e|---------------------------------------------------------------------------|
B|---------------------------------------------------------------------------|
G|---------------------------------------------------------------------------|
D|-------4--4-4--------9--9-9----------11--11-11----------14--14-14----------|
A|-4--4--4--4-4--9--9--9--9-9--11--11--11--11-11--14--14--14--14-14----------|
E|-2--2--2--2-2--7--7--7--7-7---9---9---9---9--9--12--12--12--12-12----------|
[ Tab from: http://www.guitartabs.cc/tabs/a/afi/morningstar_tab_ver_6.html ]
e|---------------------------------------------------------------------------|
B|---------------------------------------------------------------------------|
G|---------------------------------------------------------------------------|
D|--------7--7-7--------9--9-9-----------------------------------------------|
A|--7--7--7--7-7--9--9--9--9-9--11-11-11-11-11-11-11-11-11-11-11-0-----------|
E|--5--5--5--5-5--7--7--7--7-7---9--9--9--9--9--9--9--9--9--9--9-0-----------|
                               P.M............. . .  .  
Bridge
e|---------------------------------------------------------------------------|
B|---------------------------------------------------------------------------|
G|---------------------------------------------------------------------------|
D|---------------------------------------------------------------------------|
A|-11-11-11-11-11-11-11-11-9-9-9-9-9-9-9-9-7-7-7-7-7-7-7-7-4-4-4-4-4-4-4-4---|
E|--9--9--9--9--9--9--9--9-7-7-7-7-7-7-7-7-5-5-5-5-5-5-5-5-2-2-2-2-2-2-2-2---|
Heavy P.M.................................................................

e|---------------------------------------------------------------------------|
B|---------------------------------------------------------------------------|
G|---------------------------------------------------------------------------|
D|---------------------------------------------------------------------------|
A|-11-11-11-11-11-11-11-11-14-14-14-14-14-14-14-14-7-7-7-7-9-9-9-9-11-11-11--|
E|--9--9--9--9--9--9--9--9-12-12-12-12-12-12-12-12-5-5-5-5-7-7-7-7--9--9--9--|
Heavy P.M........................................... .  .   .    

e|---------------------------------------------------------------------------|
B|---------------------------------------------------------------------------|
G|---------------------------------------------------------------------------|
D|---------------------------------------------------------------------------|
A|-11-11-11-11-11-9-9-9-9-9-9-9-7-7-7-7-7-7-7-7-4-4-4-4-4-4-4-4-4------------|
E|--9--9--9--9--9-7-7-7-7-7-7-7-5-5-5-5-5-5-5-5-2-2-2-2-2-2-2-2-2------------|


e|---------------------------------------------------------------------------|
B|---------------------------------------------------------------------------|
G|---------------------------------------------------------------------------|
D|---------------------------------------------------------------------------|
A|-11-11-11-11-11-11-11-11-9-9-9-9-9-9-9-9-7~--------------------------------|
E|--9--9--9--9--9--9--9--9-7-7-7-7-7-7-7-7-5~--------------------------------|

Outro (Distorted)
e|---------------------------------------------------------------------------|
B|---------------------------------------------------------------------------|
G|---------------------------------------------------------------------------|
D|---------------------------------------------------------------------------|
A|(pick scrape)-2--2--9--9--11--11-11-11-11-11-11-11-11-11-11-11-11----------|
E|--------------0--0--7--7---9---9--9--9--9--9--9--9--9--9--9--9--9----------|


e|---------------------------------------------------------------------------|
B|---------------------------------------------------------------------------|
G|---------------------------------------------------------------------------|
D|---------------------------------------------------------------------------|
A|--4--4--9--9--11--11--14--14--7--7--9--9--11--11-11-11-11-11-11-11-11-11-11|
E|--2--2--7--7---9---9--12--12--5--5--7--7---9---9--9--9--9--9--9--9--9--9--9|


e|---------------------------------------------------------------------------|
B|---------------------------------------------------------------------------|
G|---------------------------------------------------------------------------|
D|---------------------------------------------------------------------------|
A|-4--4--9--9--11--11--14--14--7--7--9~/11----Do not pick when you shift!----|
E|-2--2--7--7---9---9--12--12--5--5--7~/-9-----------------------------------|



Intro x1
Chorus x1
Intro x1
Chorus x2
Bridge x1
Outro x1
Well, thats it, the whole song. It's pretty simple. If you have any questions or
comments please feel free to email me.
As in my other tabs, I advise you to listen to the song a couple of times, play with the
song a couple of times, and THEN if you feel like you are ready, play it by yourself
(since there really is no drums in this song)


| /  slide up
| \  slide down
| h  hammer-on
| p  pull-off
| ~  hold note
| +  harmonic
| x  Mute note
===============================================================================
Comments