Afi - Morningstar Chords & Tabs

 

Morningstar Chords & Tabs

Afi Chords & Tabs

Version: 4 Type: Tab 0 ratings
1 star 2 stars 3 stars 4 stars 5 stars
comments

Morningstar Tab

   
Song:Morningstar
Album:The Art Of Drowning
Band:A.F.I
E-Mail:greenday_rhcp2002@yahoo.co.uk

 . = PALM MUTE.JUST PALM MUTE ANYWHERE YOU SEE...

ITRO/VERSE Clean tone
|-----------------|-----------------|---------|
|-----------------|-----------------|---------|
|-----------------|-----------------|---------|
|-9-9-9-9-9-9-9-9-|-9-9-9-9-9-9-9-9-|---------|
|-7-7-7-7-7-7-7-7-|-6-6-6-6-6-6-6-6-|-11------|
|-----------------|-----------------|-9 (x16)-|
  . . . . . . . .   . . . . . . . .   .......
|-----------------|-----------------|---------|
|-----------------|-----------------|---------|
|-----------------|-----------------|---------|
|-7-7-7-7-7-7-7-7-|-9-9-9-9-9-9-9-9-|-11------|
|-5-5-5-5-5-5-5-5-|-7-7-7-7-7-7-7-7-|-9-------|
|-----------------|-----------------|---(x16)-|
  . . . . . . . .   . . . . . . . .   .......

|-----------------|-----------------|---------|
|-----------------|-----------------|---------|
|-----------------|-----------------|---------|
|-9-9-9-9-9-9-9-9-|-9-9-9-9-9-9-9-9-|-11------|
|-7-7-7-7-7-7-7-7-|-6-6-6-6-6-6-6-6-|-9-------|
|-----------------|-----------------|---(x16)-|
  . . . . . . . .   . . . . . . . .   ........
|-----------------|-----------------|||FOR INTRO ALSO PLAY
|-----------------|-----------------|||THE SECTION BELOW BUT
|-----------------|-----------------|||THIS IS WHERE THE
|-7-7-7-7-7-7-7-7-|-9-9-9-9-9-9-9-9-|||VERSE ENDS.
|-5-5-5-5-5-5-5-5-|-7-7-7-7-7-7-7-7-|||
|-----------------|-----------------|||
  . . . . . . . .   . . . . . . . .
|---------|-----------------|-----------------|---------|
|---------|-----------------|-----------------|---------|
|---------|-----------------|-----------------|---------|
|---------|-9-9-9-9-9-9-9-9-|-9-9-9-9-9-9-9-9-|-11------|
|-11------|-7-7-7-7-7-7-7-7-|-6-6-6-6-6-6-6-6-|-9-(x16)-|
|-9-(X16)-|-----------------|-----------------|---------|
  .......   . . . . . . . .   . . . . . . . .   .........

|-----------------|-----------------|
|-----------------|-----------------|
|-----------------|-----------------|
|-7-7-7-7-7-7-7-7-|-9-9-9-9-9-9-9-9-|
|-5-5-5-5-5-5-5-5-|-7-7-7-7-7-7-7-7-|
|-----------------|-----------------|
  . . . . . . . .   . . . . . . . .

 Bridge1
|-------------------------------------------|
|-------------------------------------------|
|-------------------------------------------|
|-------------------------------------------|
|---7-7---9-9--11---11-11-11-11-11-11-11-11-|
|-9-----9-----9-----9--9--9--9--9--9--9--9--|
[ Tab from: http://www.guitartabs.cc/tabs/a/afi/morningstar_tab_ver_4.html ]
Chorus
|----------------------------------------------------------|
|----------------------------------------------------------|
|-11-11-11--------------------9-9-9------------------------|
|-11-11-11--9-9-9--11-11-11---9-9-9--7-7-7--9-9-9--11------|
|-9--9--9---9-9-9--11-11-11---7-7-7--7-7-7--9-9-9--11------|
|-----------7-7-7--9--9--9-----------5-5-5--7-7-7--9-(x16)-|


NOW PLAY VERSE AGAIN

PLAY CHORUS WITHOUT THE LAST 9 11 11 note


NOW PLAY BRIDGE1


NOW PLAY  ALL CHORUS ONCE AND THEN PLAY WHATS BELOW


BRIDGE Clean Tone
|-------------------------|-----------------|-----------------|
|-------------------------|-----------------|-----------------|
|-------------------------|-----------------|-----------------|
|-11-11-11-11-11-11-11-11-|-----------------|-----------------|
|-9--9--9--9--9--9--9--9--|-9-9-9-9-9-9-9-9-|-7-7-7-7-7-7-7-7-|
|-------------------------|-7-7-7-7-7-7-7-7-|-5-5-5-5-5-5-5-5-|
  .  .  .  .  .  .  .  .    . . . . . . . .   . . . . . . . .
|-----------------|-------------------------|-----------------|
|-----------------|-------------------------|-----------------|
|-----------------|-------------------------|-----------------|
|-----------------|-------------------------|-----------------|
|-4-4-4-4-4-4-4-4-|-11-11-11-11-11-11-11-11-|-9-9-9-9-9-9-9-9-|
|-2-2-2-2-2-2-2-2-|-9--9--9--9--9--9--9--9--|-7-7-7-7-7-7-7-7-|
  . . . . . . . .   .  .  .  .  .  .  .  .    . . . . . . . .

|-----------------|-------|-------|-------------------------|
|-----------------|-------|-------|-------------------------|
|-----------------|-------|-------|-------------------------|
|-----------------|-7-7-7-|-------|-------------------------|
|-7-7-7-7-7-7-7-7-|-5-5-5-|-9-9-9-|-11-11-11-11-11-11-11-11-|
|-5-5-5-5-5-5-5-5-|-------|-7-7-7-|-9--9--9--9--9--9--9--9--|
  . . . . . . . .

|---------------|-----------------|-----------------|
|---------------|-----------------|-----------------|
|---------------|-----------------|-----------------|
|---------------|-----------------|-----------------|
|-9-9-9-9-9-9-9-|-7-7-7-7-7-7-7-7-|-4-4-4-4-4-4-4-4-|
|-7-7-7-7-7-7-7-|-5-5-5-5-5-5-5-5-|-2-2-2-2-2-2-2-2-|



INCOMES THE DISTORTION NOW

|-------------------------|-----------------|
|-------------------------|-----------------|
|-11-11-11-11-11-11-11-11-|-----------------|
|-11-11-11-11-11-11-11-11-|-9-9-9-9-9-9-9-9-|
|-9--9--9--9--9--9--9--9--|-9-9-9-9-9-9-9-9-|
|-------------------------|-7-7-7-7-7-7-7-7-|

|-------------------------|
|-------------------------|
|-------------------------|
|-11-11-11-11-11-11-11-11-|
|-11-11-11-11-11-11-11-11-|
|-9--9--9--9--9--9--9--9--|


NOW PLAY THE FULL CHORUS WITH DISTORTION.


THEN END LIKE THIS
|-------|
|-------|
|-------|
|-9/11~-|
|-9/11~-|
|-7/9-~-|


NOTES:
FOR THE CHORUS THE LAST NOTE |----|PALM MUTE FIST 8 STRUMS
                             |----|
                             |----|
                             |-11-|
                             |-11-|
                             |-9--|
I JUST GOT THIS ALBUM LAST WEEK AND THIS SONG STRUCK OUT AS
BEING GREAT TO PLAY.I LOVE THE PART WHERE THE DISTORTION
COMES IN..CHEERS ANY COMMENT WELCOME TO E-MAIL ABOVE.
PLEASE RATE..THANKS
Comments