Afi - Miss Murder Chords & Tabs

 

Miss Murder Chords & Tabs

Afi Chords & Tabs

Version: 1 Type: Tab

Miss Murder Tab

   
AFI - Miss Murder
Tabbed by Brett
Guitar Eb Ab Db Gb Bb Eb

|-----0-|
|-------|
|---2---|
|-------|
|-0-----|
|-------|

				pm.....
|-5-5-5-5-3-3-3-3-|(3x)		|-1-1-1-1-3-3-3-3-|
|-5-5-5-5-3-3-3-3-|		|-1-1-1-1-3-3-3-3-|
|-5-5-7-7-5-5-3-3-|		|-1-1-1-1-3-3-3-3-|
|-7-7-7-7-5-5-5-5-|		|-3-3-3-3-5-5-5-5-|
|-7-7-5-5-3-3-5-5-|		|-3-3-3-3-5-5-5-5-|
|-5-5-5-5-3-3-3-3-|		|-1-1-1-1-3-3-3-3-|


|-----0---0-1-----0----0--------|
|-------------------------------|
|---2---2-------2----2-----2--0-|
|-------------------------------|
|-0-----------------------------|
|-------------------------------|


|-------------------------------|
|-------------------------------|
|-------------------------------|
|-77-77-55-22-----77-77-55-55-2-|
|-77-77-55-22-----77-77-55-55-2-|
|-55-55-33-00-----55-55-33-33-0-|


				pm.....
|-5-5-5-5-3-3-3-3-|(3x)		|-1-1-1-1-3-3-3-3-|
|-5-5-5-5-3-3-3-3-|		|-1-1-1-1-3-3-3-3-|
|-5-5-7-7-5-5-3-3-|		|-1-1-1-1-3-3-3-3-|
|-7-7-7-7-5-5-5-5-|		|-3-3-3-3-5-5-5-5-|
|-7-7-5-5-3-3-5-5-|		|-3-3-3-3-5-5-5-5-|
|-5-5-5-5-3-3-3-3-|		|-1-1-1-1-3-3-3-3-|


|-----------------------------------------------------------------|
|-----------------------------------------------------------------|
|-222222-5-222222-222222-7-222222-000000-4-000000--------4--------|
|-------------------------------------------------222222---222222-|
|-----------------------------------------------------------------|
|-----------------------------------------------------------------|

|----------------------------------------------------------|
|----------------------------------------------------------|
|-222222-5-222222-222222-5-22-5-7-2-000000-4-000000----444-|
|---------------------------------------------------222222-|
|----------------------------------------------------------|
|----------------------------------------------------------|

|-12~~~~~~~~~~~~~~13~~~~~~10~~~~~~7-|
|-----------------------------------|
|-----------------------------------|
|-----------------------------------|
|-----------------------------------|
|-----------------------------------|


|-------------------------------|
|-------------------------------|
|-------------------------------|
|-77-77-55-22-----77-77-55-55-2-|
|-77-77-55-22-----77-77-55-55-2-|
|-55-55-33-00-----55-55-33-33-0-|


				pm.....
|-5-5-5-5-3-3-3-3-|(3x)		|-1-1-1-1-3-3-3-3-|
|-5-5-5-5-3-3-3-3-|		|-1-1-1-1-3-3-3-3-|
|-5-5-7-7-5-5-3-3-|		|-1-1-1-1-3-3-3-3-|
|-7-7-7-7-5-5-5-5-|		|-3-3-3-3-5-5-5-5-|
|-7-7-5-5-3-3-5-5-|		|-3-3-3-3-5-5-5-5-|
|-5-5-5-5-3-3-3-3-|		|-1-1-1-1-3-3-3-3-|

[ Tab from: http://www.guitartabs.cc/tabs/a/afi/miss_murder_tab.html ]
|------------------------------------------------------------------|(2x)
|------------------------------------------------------------------|
|---------9-------8-------------------------9-------8--------------|
|---7-------7---7---7---7-------------7-------7---7---7---7--------|
|-0---0-0-----0-------0-------------0---0-0-----0-------0----10-10-|
|-------------------------8-8-8-8-----------------------------8--8-|

					   pm........
|----------------------------------------------------------|
|----------------------------------------------------------|
|---------9-------8----------------------------------------|
|---7-------7---7---7---7------------------7-7-7-7-7-7-7-7-|
|-0---0-0-----0-------0------------10-10---7-7-7-7-7-7-7-7-|
|-------------------------8-8-8-8---8--8---5-5-5-5-5-5-5-5-|

|------------------------------------------------------------------|
|------------------------------------------------------------------|
|---------9-------8-------------------------9-------8--------------|
|---7-------7---7---7---7-------------7-------7---7---7---7--------|
|-0---0-0-----0-------0-------------0---0-0-----0-------0----10-10-|
|-------------------------8-8-8-8-----------------------------8--8-|

pm.......................
|----------------------------------------------------------|
|----------------------------------------------------------|
|---------9-------8----------------------------------------|
|---7-------7---7---7---7------------------7-7-7-7-7-7-7-7-|
|-0---0-0-----0-------0------------10-10---7-7-7-7-7-7-7-7-|
|-------------------------8-8-8-8---8--8---5-5-5-5-5-5-5-5-|

|---------------------------|
|---------------------------|
|---------------------------|
|---------------------------|
|-7-7-9-9-10-10-5-5-7-7-9-9-|
|-5-5-7-7--8--8-3-3-5-5-7-7-|



				pm.....
|-5-5-5-5-3-3-3-3-|(3x)		|-1-1-1-1-3-3-3-3-|
|-5-5-5-5-3-3-3-3-|		|-1-1-1-1-3-3-3-3-|
|-5-5-7-7-5-5-3-3-|		|-1-1-1-1-3-3-3-3-|
|-7-7-7-7-5-5-5-5-|		|-3-3-3-3-5-5-5-5-|
|-7-7-5-5-3-3-5-5-|		|-3-3-3-3-5-5-5-5-|
|-5-5-5-5-3-3-3-3-|		|-1-1-1-1-3-3-3-3-|


				pm.....
|-5-5-5-5-3-3-3-3-|(3x)		|-1-1-1-1-3-3-3-3-|	|-----|
|-5-5-5-5-3-3-3-3-|		|-1-1-1-1-3-3-3-3-|	|-----|
|-5-5-7-7-5-5-3-3-|		|-1-1-1-1-3-3-3-3-|	|-----|
|-7-7-7-7-5-5-5-5-|		|-3-3-3-3-5-5-5-5-|	|-7-7-|
|-7-7-5-5-3-3-5-5-|		|-3-3-3-3-5-5-5-5-|	|-7-7-|
|-5-5-5-5-3-3-3-3-|		|-1-1-1-1-3-3-3-3-|	|-5-5-|




(2nd Guitar played over very last chorus)

|-55555555-77777777-88888888-33333333-55555555-77777777-10-10-10-10-10-10-10-10-88888888-|
|----------------------------------------------------------------------------------------|
|----------------------------------------------------------------------------------------|
|----------------------------------------------------------------------------------------|
|----------------------------------------------------------------------------------------|
|----------------------------------------------------------------------------------------|

|-55555555-77777777-88888888-33333333-5555555555555555-4444444444444444-|
|-----------------------------------------------------------------------|
|-----------------------------------------------------------------------|
|-----------------------------------------------------------------------|
|-----------------------------------------------------------------------|
|-----------------------------------------------------------------------|