Afi - Midnight Sun Chords & Tabs

 

Midnight Sun Chords & Tabs

Afi Chords & Tabs

Version: 1 Type: Tab 0 ratings
1 star 2 stars 3 stars 4 stars 5 stars
comments

Midnight Sun Tab

   
----------------------------------------------------------------------------
			     midnight sun AFI
----------------------------------------------------------------------------
Tabbed by:me
Email:doesnt work srry

Tuning:standard (eadgbe)
[ Tab from: http://www.guitartabs.cc/tabs/a/afi/midnight_sun_tab.html ]
(srry i screwed up on the strumming pattern so u have to listen to the song to figure it out)
intro:
e|---12+---------5+---------------------------------------------------------|
B|-------7+-------------7+-------12+----------------------------------------|
G|-----------5+-----7+-------5+--12+----------------------------------------|
D|--------------------------------------------------------------------------|
A|--------------------------------------------------------------------------|
E|--------------------------------------------------------------------------|
verse:
e|---------------------------------------------------------------------------|
B|---------------------------------------------------------------------------|
G|---------------------------------------------------------------------------|
D|--------------------------------------------6-6-6-6------------------------|
A|-3-3-3-2-2-3-3-3--5-5-5-5-6-6-6-5-5-5-8-8-8-4-4-4-4------------------------|
E|-1-1-1-0-0-1-1-1--3-3-3-3-4-4-4-3-3-3-6-6-6--------------------------------|
   ** ************************  ****************** <~~palm mute
chorus:
e|--------------------------------------------------------------------------|
B|--------------------------------------------------------------------------|
G|--------------------------------------------------------------------------|
D|--999999-10-10-10-10-10-10-11-11-11-10-10-10-10-13-13-13-12-12-12---------|
A|--777777-8--8--8--8--8--8--8--8--8--8--8--8--8--10-10-10-10-10-10---------|
E|--------------------------------------------------------------------------|

pre intolude
e|--------------------------------------------------------------------------|
B|--------------------------------------------------------------------------|
G|---------------------------4x--then---------------------------4x----------|
D|-------------------12-10-------------12-12-12-12-11-11-11-11--------------|
A|--10-8-10-11-12----10--8-------------9--9--9--9--9--9--9--9---------------|
E|--8--6-8--9--10-----------------------------------------------------------|

introlude
e|--------------------------------------------------------------------------|
B|--------------------------------------------------------------------------|
G|--------------------------------------------------------------------------|
D|--999999-10-10-10-10-10-10-11-11-11-10-10-10-10-13-13-13-12-12-12---------|
A|--777777-8--8--8--8--8--8--8--8--8--8--8--8--8--10-10-10-10-10-10---------|
E|--------------------------------------------------------------------------|

end on this
e|--------------------------------------------------------------------------|
B|--------------------------------------------------------------------------|
G|--------------------------------------------------------------------------|
D|--12h13-------------------------------------------------------------------|
A|--------------------------------------------------------------------------|
E|--------------------------------------------------------------------------|

thats about it you should be able to figure out the order and everything... umm yeah


| /  slide up
| \  slide down
| h  hammer-on
| p  pull-off
| ~  vibrato
| +  harmonic
| x  Mute note
============================================================================
Comments