Afi - Leaving Song Part 2 Chords & Tabs

 

Leaving Song Part 2 Chords & Tabs

Afi Chords & Tabs

Version: 4 Type: Tab 0 ratings
1 star 2 stars 3 stars 4 stars 5 stars
comments

Leaving Song Part 2 Tab

   
Tuning is:Eb Ab Db Gb Bb Eb (low to high)

Intro
|-------14-12/14----------19-------14-12/14----------19-|
|----20----------15-------------20----------15----------|
|-------------------16-19----------------------16-19----|
|-------------------------------------------------------|
|-19-------------------------19-------------------------|
|-------------------------------------------------------|

|-15----14----14----12-|
|----22----20----------|
|----------------------|
|----------------------|
|----------------------|
|----------------------|

Verse
Riff A
|-------------------------------------------------------|
|-------------------------------------------------------|
|-10---11---9----9-9-9-9-----10---11---9----9-9-9-9-----|
|--x----x---x----x-x-x-x------x----x---x----x-x-x-x-----|
|-12----9---7----7-7-7-7-----12----9---7----7-7-7-7-----|
|--0-0--0-0-0----0-0-0-0-0-0--0-0--0-0-0----0-0-0-0-0-0-|

Riff B
|----------------------------------------------------------------------|
|----------------------------------------------------------------------|
|-12---14-(14)/16-----16-16-16-16-16-----7-----7---7-7-----------------|
|--x----x--------------x--x--x--x--x-----7-----7---7-7---5-5-5-5/7-7-7-|
|-10---12-(12)/14-----14-14-14-14-14-0-0-5-----5---5-5---5-5-5-5/7-7-7-|
|----0------------0----0--0--0--0--0-0-0-5-----5---5-5-0-3-3-3-3/5-5-5-|

Repeat Riff A
Repeat Riff B

Pre Chorus
Riff C
|-12-12-12-15-15-15-14-14-14-10-10-10-14-14-12-12-|
|-------------------------------------------------|
|-------------------------------------------------|
|-------------------------------------------------|
|-------------------------------------------------|
|-------------------------------------------------|

|-12-12-12-15-15-15-14-14-14-10-10-10-14-14-12-0-|
|----------------------------------------------0-|
|------------------------------------------------|
|------------------------------------------------|
|------------------------------------------------|
|------------------------------------------------|

Riff D
|-12-0-0-15-0-0-14-0-0-10-0-0-14-0-12-0-|
|----0-0----0-0----0-0----0-0----0----0-|
|---------------------------------------|
|---------------------------------------|
|---------------------------------------|
|---------------------------------------|

|-12-12-12/15-15-15-14-(14)----|
|-12-12-12/15-15-15-15-(15)----|
|------------------------------|
|------------------------------|
|------------------------------|
|------------------------------|

Chorus
Riff E
|---------------------------------------------------------------|
|---------------------------------------------------------------|
|------------------------------------------------------11/12/14-|
|-2-----2---2-2---5-----4-5-4--2---2-2-2---2-2---5------x-------|
|-2-----2---2-2---5-----5---5--2---2-2-2---2-2---5------9/10/12-|
|-0-----0---0-0---3---0--------0---0-0-0---0-0---3---0----------|
[ Tab from: http://www.guitartabs.cc/tabs/a/afi/leaving_song_part_2_tab_ver_4.html ]
Riff F
|-------------------------------------------5---------7-0-0-|
|-------------------------------------5-------5-------7-0-0-|
|-------------------------------5-------5-------5-----8-0-0-|
|-2-----2---2-2---5-----4-5-4---------------------7/9-9-----|
|-2-----2---2-2---5-----5---5-------------------------9-----|
|-0-----0---0-0---3---0-------5---5-5-----5-----------7-----|

Riff G
|-0-----------------|
|-0-----------------|
|-0-----7/9-9-9-9-9-|
|-2-----x---x-x-x-x-|
|-2-----5/7-7-7-7-7-|
|-0-----0---0-0-0-0-|

Repeat Verse/Pre Chorus/Chorus

Bridge
Riff H
|-------------------------------------------------------|
|-------------------------------------------------------|
|-------------------------------------------------------|
|--------------------------------------------2--2--2--2-|
|-2-2-2-2---2-2-2---2-2-2-2--2--2-----2-2-2--2--2--2--2-|
|-0-0-0-0---0-0-0---0-0-0-0--0--0-----0-0-0--0--0--0--0-|

Riff I
|----------------------------------------------------------|
|----------------------------------------------------------|
|-4---------5-----------------------4/5-4------------0-----|
|-x---------x-----------------7-----x---x----------------0-|
|-2---------3-----------------5-----2/3-2------------------|
|---0-0-0-0-----0-0-0-0-0-0-0---0-0-----0---0--0--0--------|

Riff J
|------------------------------------------------------------|
|------------------------------------------------------------|
|-4---------5-----------------7-------------9-9---9----9---9-|
|-x---------x-----------------x-------------9-9---9----9---9-|
|-2---------3-----------------5-------------7-7---7----7---7-|
|---0-0-0-0-----0-0-0-0-0-0-0-----0-0-0-----0-0---0----0---0-|

Riff K
|-14----------14--------15----------------14------17-----15---------------|
|-------------------------------------------------------------------------|
|-----17---------17-----------16-------------------------------16---------|
|-14------14---------14-14--------14--14------14------14-14--------14--14-|
|-------------------------------------------------------------------------|
|-------------------------------------------------------------------------|

|-14----------14--------15------------------17----------17------19-|
|----------------------------------------------------------0-------|
|-----17---------17-----------16----------------17-----------------|
|-14------14---------14-14--------14--14----14------14----------14-|
|------------------------------------------------------------------|
|------------------------------------------------------------------|

Repeat Chorus

Outro
|-7--7--7--7----------------------------------------------------------5-|
|-7--7--7--7----------------------------------------------------------5-|
|-8--8--8--8--9--9--8--8--8--8--8--8--8--8----------------------------5-|
|-9--9--9--9--x--x--x--x--x--x--x--x--x--x------------------------------|
|-9--9--9--9--7--7--6--6--6--6--6--6--6--6------------------------------|
|-7--7--7--7--------------------------------0--0--0-0-0-0-0-0-0-0-0-0---|



2005 Kevin Johnson (elementos)
Comments