Afi - Leaving Song Part 2 Chords & Tabs

 

Leaving Song Part 2 Chords & Tabs

Afi Chords & Tabs

Version: 3 Type: Tab 0 ratings
1 star 2 stars 3 stars 4 stars 5 stars
comments

Leaving Song Part 2 Tab

The Leaving Song (pt.2)
half step down

I found this out by ear so it might not be the greatest in the world, but you can fix it.
I know it is al litte bit right atlesat. alot better than some of the ones on here. also
i have it for two guitars when there is only one play, but some parts do have two in the
CD.


Guitar 1
         T     T        T
-|----12-19p12-17p15-14-15p14-----|----12--17/19-15/17-14/15-14--12---|
-|-12-----------------------------|-12--------------------------------|
-|--------------------------------|-----------------------------------|
-|--------------------------------|-----------------------------------|
-|----------------------------x3--|-----------------------------------|
-|--------------------------------|-----------------------------------|


Guitar 1&2
-|--------------------------------|-----------------------------|-----------|
-|--------------------------------|-----------------------------|-----------|
-|-12-12-12-11-11-9--9--9-9-9-----|-12-12-12-14-14-16--16-16-16-|-----0-12--|
-|-X--X--X--X--X--X--X--X-X-X-----|-X--X--X--X--X--X---X--X--X--|-7-7-0-12--| x2
-|-10-10-10-9--9--7--7--7-7-7--x2-|-10-10-10-12-12-14--14-14-14-|-7-7-0-10--|
-|-0--0--0--0--0--0--0--0-0-0-----|-0--0--0--0--0--0---0--0--0--|-5-5-------|


Guitar 2
-|-12-0-0-15-0-0-14-0-0-10-0-0-14-0-12-0-----|-12-0-0-15-0-0-14-0-0-10-0-0-14-12-0--|
-|-------------------------------------------|--------------------------------------|
-|-------------------------------------------|--------------------------------------|
-|----------------------------------------x2-|--------------------------------------|
-|-------------------------------------------|--------------------------------------|
-|-------------------------------------------|--------------------------------------|
 [.......pm.............................]
Guitar 2
-|-12-12-12-15-15-15-15-14-14-14-14-10-------|
-|-12-12-12-12-12-12-12-12-12-12-12-10-------|
-|-------------------------------------9-/2--|
-|-------------------------------------9/-2--|
-|-------------------------------------------|
-|-------------------------------------------|


Guitar 1&2
-|-------------------------------------------------------|
-|--------------------------------7h8-10-----------------|
-|-------------------------------------------------------|
-|-2-2--5-5-5-9/10/5---2-2--5-5-5---------2-2--5-/4p0-4--|
-|-2-2--5-5-5----------2-2--5-5-5---------2-2--3/-2---2--|
-|-0-0--3-3-3----------0-0--3-3-3---------0-0------------|


Guitar 2
-|------------------------------------------|
-|---------------10-------------------------|
-|---------4--------9-----------------------|
-|---7-------5--------10---10-7---7/9-2-2---|
-|-0---7-0-----0---------0------0-----0-0---|
-|------------------------------------0-0---|


Guitar 1&2
-|-----------|-------------------------|-------------------------------------------|
-|-----------|-------------------------|-------------------------------------------|
-|-7--/9-9-9-|-12---11---9-9-9-9-9-----|-12---14---16--16-16-16--------7-7-7--/12--|
-|-X-/-9-9-9-|-X----X----X-X-X-X-X-----|-X----X----X---X--X--X---5-5-5-7-7-7-/-12--| x2
-|-5/--7-7-7-|-10-0-9--0-7-7-7-7-7--x2-|-10-0-12-0-14--14-14-14--5-5-5-5-5-5/--10--|
-|-----------|-0--0-0--0-0-0-0-0-0-----|-0--0-0--0-0---0--0--0---3-3-3-------------|


Guitar 2
-|-12-0-0-15-0-0-14-0-0-10-0-0-14-0-12-0-----|-12-0-0-15-0-0-14-0-0-10-0-0-14-12-0--|
-|-------------------------------------------|--------------------------------------|
-|-------------------------------------------|--------------------------------------|
-|----------------------------------------x2-|--------------------------------------|
-|-------------------------------------------|--------------------------------------|
-|-------------------------------------------|--------------------------------------|
 [.......pm.............................]
Guitar 2
-|-12-12-12-15-15-15-15-14-14-14-14-10-------|
-|-12-12-12-12-12-12-12-12-12-12-12-10-------|
-|-------------------------------------9-/2--|
-|-------------------------------------9/-2--|
-|-------------------------------------------|
-|-------------------------------------------|


Guitar 1&2
-|-------------------------------------------------------|
-|--------------------------------7h8-10-----------------|
-|-------------------------------------------------------|
-|-2-2--5-5-5-9/10/5---2-2--5-5-5---------2-2--5-/4p0-4--|
-|-2-2--5-5-5----------2-2--5-5-5---------2-2--3/-2---2--|
-|-0-0--3-3-3----------0-0--3-3-3---------0-0------------|


Guitar 2
-|------------------------------------------|
-|---------------10-------------------------|
-|---------4--------9-----------------------|
-|---7-------5--------10---10-7---7/9-2-2---|
-|-0---7-0-----0---------0------0-----0-0---|
-|------------------------------------0-0---|

[ Tab from: http://www.guitartabs.cc/tabs/a/afi/leaving_song_part_2_tab_ver_3.html ]
Guitar 1
-|-------------------------------------|
-|-------------------------------------|
-|----------------------------------5--|
-|-2-2--5-5-5-4h5-0--2-2-2-2--5-5-5-5--|
-|-2-2--5-5-5--------2-2-2-2--5-5-5-3--|
-|-0-0--3-3-3--------0-0-0-0--3-3-3----|
                    [..pm.]
Guitar 1
-|------------------------------------------|
-|---------------10-------------------------|
-|---------4--------9-----------------------|
-|---7-------5--------10---10-7---7/9-2-2---|
-|-0---7-0-----0---------0------0-----0-0---|
-|------------------------------------0-0---|


Guitar 2
-|-12-hold-out--|
-|--------------|
-|--------------|
-|--------------|
-|--------------|
-|--------------|


Guitar 1&2
-|-----------------------------|
-|-----------------------------|
-|-----------------------------|
-|-2-2-2-2--2-2-2--2--2-2-2-2--| x3
-|-2-2-2-2--2-2-2--2--2-2-2-2--|
-|-0-0-0-0--0-0-0--0--0-0-0-0--|
  [.........pm...............]


Guitar 1&2
-|---------------------------------------------------------------|
-|---------------------------------------------------------------|
-|----------------------5---------------------7-----4-(12)-------|
-|-2-2-2-2-2-2--2-------5-----------2---------7-----4------(12)--|
-|-2-2-2-2-2-2--2-------3-----------2---------5-----2------------|
-|-0-0-0-0-0-0--0-0-0-0-0-0-0-0-0-0-0-0-0-0-0-0-0-0-0------------|
  [..pm..]       [..pm.] [..pm.....] [..pm...] [pm.]
Guitar 1&2
-|---------------------------|
-|---------------------------|
-|-----------5--7-7-7-7-7-9--|
-|-2---------5--7-7-7-7-7-9--|
-|-2---------3--5-5-5-5-5-7--|
-|-0-0-0-0-0-0--0-0-0-0-0-0--|


Guitar 2
-|-14-0-0-14-0-0-15--14-0-0-17-0-0-15--3------14-0-0-14-0-0-15-3------|
-|---------------------------------------3-----------------------3----|
-|-----------------------------------------7-----------------------7--|
-|--------------------------------------------------------------------|
-|--------------------------------------------------------------------|
-|--------------------------------------------------------------------|
Guitar 2
-|-14-------17-------15-|-14-------14-------15--15-------14-------17-------15--|
-|----15-------15-------|----15-------15-----------15-------15-------15--------|
-|-------14-------14----|-------14-------14-----------14-------14-------14-----|
-|----------------------|------------------------------------------------------|
-|----------------------|------------------------------------------------------|
-|----------------------|------------------------------------------------------|
Guitar 2
-|-14-------14-------15--15-------14-------17-------15-|-14------------|
-|----15-------15-----------15-------15-------15-------|----15---------|
-|-------14-------14-----------14-------14-------14----|-------14------|
-|-----------------------------------------------------|---------------|
-|-----------------------------------------------------|-----------x5--|
-|-----------------------------------------------------|---------------|

Guitar 2
-|--------------------------------------------------------------------------|
-|--------------------------------------------------------------------------|
-|--------------------------------------------------------------------------|
-|--------------------------------------------------------------------------|
-|-7-7-7-7-7-7-7-7-9-9-9-9-9-9-9-9-12-12-12-12-12-12-12-12-2-2-2-2-2-2-2-2--|
-|-0-0-0-0-0-0-0-0-0-0-0-0-0-0-0-0-0--0--0--0--0--0--0--0--0-0-0-0-0-0-0-0--|

Guitar 1&2
-|-------------------------------------------------------|
-|--------------------------------7h8-10-----------------|
-|-------------------------------------------------------|
-|-2-2--5-5-5-9/10/5---2-2--5-5-5---------2-2--5-/4p0-4--|
-|-2-2--5-5-5----------2-2--5-5-5---------2-2--3/-2---2--|
-|-0-0--3-3-3----------0-0--3-3-3---------0-0------------|


Guitar 2
-|------------------------------------------|
-|---------------10-------------------------|
-|---------4--------9-----------------------|
-|---7-------5--------10---10-7---7/9-2-2---|
-|-0---7-0-----0---------0------0-----2-2---|
-|------------------------------------0-0---|

Guitar 1
-|-------------------------------------|
-|-------------------------------------|
-|----------------------------------5--|
-|-2-2--5-5-5-4h5-0--2-2-2-2--5-5-5-5--|
-|-2-2--5-5-5--------2-2-2-2--5-5-5-3--|
-|-0-0--3-3-3--------0-0-0-0--3-3-3----|
                    [..pm.]
Guitar 1
-|------------------------------------------|
-|---------------10-------------------------|
-|---------4--------9-----------------------|
-|---7-------5--------10---10-7---7/9-2-2---|
-|-0---7-0-----0---------0------0-----0-0---|
-|------------------------------------0-0---|


Guitar 2
-|-12-hold-out--|
-|--------------|
-|--------------|
-|--------------|
-|--------------|
-|--------------|

Guitar 1
-|------------|-(7)--|
-|------------|------|
-|------------|------|
-|-2--2--2--2-|------|
-|-2--2--2--2-|------|
-|-0--0--0--0-|------|


Guitar2
-|------------|-(12)--|
-|------------|-------|
-|------------|-------|
-|-2--2--2--2-|-------|
-|-2--2--2--2-|-------|
-|-0--0--0--0-|-------|
Comments