Afi - Last Caress Chords & Tabs

 

Last Caress Chords & Tabs

Afi Chords & Tabs

Version: 2 Type: Tab 0 ratings
1 star 2 stars 3 stars 4 stars 5 stars
comments

Last Caress Tab

This is my first tab.  It isn't 100% correct, but It's close enough.


Intro
e|---------------------------------------------
B|---------------------------------------------
G|------------10--12-------------10--12--10--7-
D|-10---------10--12----10-------10--12--10--7-
A|-10---------8---10----10-------8---10--8---5-
E|-8--------------------8----------------------
[ Tab from: http://www.guitartabs.cc/tabs/a/afi/last_caress_tab_ver_2.html ]
Verse
e|---------------------------------------------------
B|---------------------------------------------------
G| ----------10--12--------------10--12-----10-----7- 
D|-10--------10--12----10--------10--12-----10-----7-
A|-10--------8---10----10--------8---10-----8------5-
E|-8-------------------8-----------------------------
   12x                 12x                  8x     8x

Chorus
e|-------------------------------------
B|-------------------------------------
G|-10----12-----------9----7---10----7-
D|-10----12----10-----9----7---10----7-
A|-8-----10----10-----7----5---8-----5-
E|-------------8-----------------------
   8x    8x    4x     4x   6x  8x    8x


Ending
e|----------------
B|----------------
G|-------10----12-
D|-10----10----10-
A|-8-----8-----10-
E|-8--------------
  12x    2x    2x

Between Verses/Chorus play
e|--------------
B|--------------
G|-------10--12-
D|-10----10--12-
A|-10----8---10-
E|-8------------
  12x

Composition:
Intro 1x
Verse 1x
Chorus 1x
Verse 1x
Chorus 1x
Verse 1x
Chorus 1x
Ending 8x
Comments