Afi - Initiation Chords & Tabs

 

Initiation Chords & Tabs

Afi Chords & Tabs

Version: 1 Type: Tab 0 ratings
1 star 2 stars 3 stars 4 stars 5 stars
comments

Initiation Tab

-------------------------------------------------------------------------------
                                   INITIATION - AFI
-------------------------------------------------------------------------------

By Rick (H2ORick@webtv.net)
[ Tab from: http://www.guitartabs.cc/tabs/a/afi/initiation_tab.html ]
E|-------------------------------------------
B|-------------------------------------------
G|-------------------------------------------
D|--------9---10---7---8---9---10---7---8----
A|--------7----7---7---7---7----7---7---7----
E|-------------------------------------------
    p.m.|-----------------------------------|

E|----------------------------------------
B|----------------------------------------
G|----------------------------------------
D|-7--8--9--10--7--8--9--10--7--8--9--10--
A|-7--7--7---7--7--7--7---7--7--7--7---7--
E|----------------------------------------

End With
E|-------
B|-------
G|-------
D|--7---
A|--7---
E|--0---

Probably not exact, but sounds alright to me.
Questions or comments: H2ORick@webtv.net
Comments