Afi - I Wanna Get A Mohawk Chords & Tabs

 

I Wanna Get A Mohawk Chords & Tabs

Afi Chords & Tabs

Version: 2 Type: Tab 0 ratings
1 star 2 stars 3 stars 4 stars 5 stars
comments

I Wanna Get A Mohawk Tab

I WANNA MOHAWK (BUT MOM WON`T LET ME GET ONE) by AFI from ANSWER THAT AND STAY FASHIONABLE
An easy song which is fun to play - what else do you want?

Notes:
* = play this 8 times
+ = play this 4 times
" = play this 2 times
# = let ring

Intro:
|---------------------------------------------------------------------------------------|
|---------------------------------------------------------------------------------------|
|--7-10--5-7-10--5-7-10--5-7------------------------------------------------------------|
|--7-10--5-7-10--5-7-10--5-7------------------------------------------------------------|
|--5--8---3-5--8--3-5---8--3-5----------------------------------------------------------|
|---------------------------------------------------------------------------------------|

Verse:
|--------------------|------------------------------------------------------------------|
|--------------------|------------------------------------------------------------------|
|--7*---------------|--7*--------10+----------------------------------------------------|
|--5*--8+--10+--|--7*--8+--10+----------------------------------------------------------|
|--5*--8+--10+--|--5*--8+---8+----------------------------------------------------------|
|-------6+---8+---|-------6+------------------------------------------------------------|
           x2                     x2
[ Tab from: http://www.guitartabs.cc/tabs/a/afi/i_wanna_get_a_mohawk_tab_ver_2.html ]
Chorus:
|--------------------|-------------------------------------------------------------------|
|--------------------|-------------------------------------------------------------------|
|--7--7-10-9-8--|--7--7-10-9--10-10-10-10-10-9-------------------------------------------|
|--7--7-10-9-8--|--7--7-10-9--10-10-10-10-10-9-------------------------------------------|
|--5--5--8--7-6--|--5--5--8-7----8---8---8---8---8-7-------------------------------------|
|--------------------|-------------------------------------------------------------------|
        x2                                            x1

Bridge:
|---------------------------------------------------------------------------------------|
|---------------------------------------------------------------------------------------|
|--7xxxxxxx-10-9----7xxxxxxx-10-12------------------------------------------------------|
|--7xxxxxxx-10-9----7xxxxxxx-10-12------------------------------------------------------|
|--5xxxxxxx---8-7----5xxxxxxx--8-10-----------------------------------------------------|
|---------------------------------------------------------------------------------------|

Song-Order:
2x Intro
1x Verse
2x Chorus
1x Verse
2x Chorus
2x Bridge
2x Intro

This fuckin? great tune is typical for AFI - isn?t it?
Send your comments about this Tab to "ali.germany2000@freenet.de"

Tabbed by: Ali_A (24-05-2001)
Comments