Afi - I Wanna Get A Mohawk Chords & Tabs

 

I Wanna Get A Mohawk Chords & Tabs

Afi Chords & Tabs

Version: 1 Type: Tab 0 ratings
1 star 2 stars 3 stars 4 stars 5 stars
comments

I Wanna Get A Mohawk Tab

   
Artist / band: AFI 
Album: Answer That & Stay Fashionable 
Track number: 04 
Track name: I Wanna Get A Mohawk [But Mom Won't Let Me Get One] 
Tabber: Keith Fusco 
Email address: koro_guitarist@hotmail.com 
Web page: http://mafafi.20m.com 

Legend: 

p - Pull off 
x - Mute 
* - Let ring 
\ - Slide down neck 
/ - Slide up neck 
pm - Palm muted 

Standard tuning (E,A,D,G,B,E) 

Intro: 

E |--------------------------------------------------------------------| 
B |--------------------------------------------------------------------| 
G |-7-/-10----7-/-10----7-/-10----7p--7-/-10----7-/-10----7-/-10----7p-| 
D |-7-/-10-10-7-/-10-10-7-/-10-10-7p--7-/-10-10-7-/-10-10-7-/-10-10-7p-| 
A |-5-/--8-10-5-/--8-10-5-/--8-10-5p--5-/--8-10-5-/--8-10-5-/--8-10-5p-| 
E |---------8---------8---------8-------------8---------8---------8----| 

Verse 

E |----------------------------------------------------------------| 
B |----------------------------------------------------------------| 
G |-7-7-7-7-7-7-7-7--------------5--7-7-7-7-7-7-7-7--------------5-| 
D |-7-7-7-7-7-7-7-7-8-8-8-8--5-5-5--7-7-7-7-7-7-7-7-8-8-8-8--5-5-5-| 
A |-5-5-5-5-5-5-5-5-8-8-8-8--5-5-3--5-5-5-5-5-5-5-5-8-8-8-8--5-5-3-| 
E |-----------------6-6-6-6--3-3--------------------6-6-6-6--3-3---| 

E |----------------------------------------------------------------| 
B |----------------------------------------------------------------| 
G |-7-7-7-7-7-7-7-7--------------5--7-7-7-7-7-7-7-7--------------5-| 
D |-7-7-7-7-7-7-7-7-8-8-8-8--5-5-5--7-7-7-7-7-7-7-7-8-8-8-8--5-5-5-| 
A |-5-5-5-5-5-5-5-5-8-8-8-8--5-5-3--5-5-5-5-5-5-5-5-8-8-8-8--5-5-3-| 
E |-----------------6-6-6-6--3-3--------------------6-6-6-6--3-3---| 

Chorus 

E |--------------------------------------------------------------------------| 
B |--------------------------------------------------------------------------| 
G |-7*-7-/-10-\-9-----7*-7-/-10-\-9-----7*-7-/-10-\-9-----7-7-7-/-10-\-9-----| 
D |-7*-7-/-10-\-9-10p-7*-7-/-10-\-9-10p-7*-7-/-10-\-9-10p-7-7-7-/-10-\-9-10p-| 
A |-5*-5-/--8-\-7-10p-5*-5-/--8-\-7-10p-5*-5-/--8-\-7-10p-5-5-7-/--8-\-7-10p-| 
E |---------------8-p----------------8p----------------8p-----------------8p-| 

E |--------------------------------------------------------------------------| 
B |--------------------------------------------------------------------------| 
G |-7*-7-/-10-\-9-----7*-7-/-10-\-9-----7*-7-/-10-\-9-----7-7-7-/-10-\-9-----| 
D |-7*-7-/-10-\-9-10p-7*-7-/-10-\-9-10p-7*-7-/-10-\-9-10p-7-7-7-/-10-\-9-10p-| 
A |-5*-5-/--8-\-7-10p-5*-5-/--8-\-7-10p-5*-5-/--8-\-7-10p-5-5-7-/--8-\-7-10p-| 
E |---------------8-p----------------8p----------------8p-----------------8p-| 

Verse 
[ Tab from: http://www.guitartabs.cc/tabs/a/afi/i_wanna_get_a_mohawk_tab.html ]
E |----------------------------------------------------------------| 
B |----------------------------------------------------------------| 
G |-7-7-7-7-7-7-7-7--------------5--7-7-7-7-7-7-7-7--------------5-| 
D |-7-7-7-7-7-7-7-7-8-8-8-8--5-5-5--7-7-7-7-7-7-7-7-8-8-8-8--5-5-5-| 
A |-5-5-5-5-5-5-5-5-8-8-8-8--5-5-3--5-5-5-5-5-5-5-5-8-8-8-8--5-5-3-| 
E |-----------------6-6-6-6--3-3--------------------6-6-6-6--3-3---| 

E |----------------------------------------------------------------| 
B |----------------------------------------------------------------| 
G |-7-7-7-7-7-7-7-7--------------5--7-7-7-7-7-7-7-7--------------5-| 
D |-7-7-7-7-7-7-7-7-8-8-8-8--5-5-5--7-7-7-7-7-7-7-7-8-8-8-8--5-5-5-| 
A |-5-5-5-5-5-5-5-5-8-8-8-8--5-5-3--5-5-5-5-5-5-5-5-8-8-8-8--5-5-3-| 
E |-----------------6-6-6-6--3-3--------------------6-6-6-6--3-3---| 

Chorus 

E |--------------------------------------------------------------------------| 
B |--------------------------------------------------------------------------| 
G |-7*-7-/-10-\-9-----7*-7-/-10-\-9-----7*-7-/-10-\-9-----7-7-7-/-10-\-9-----| 
D |-7*-7-/-10-\-9-10p-7*-7-/-10-\-9-10p-7*-7-/-10-\-9-10p-7-7-7-/-10-\-9-10p-| 
A |-5*-5-/--8-\-7-10p-5*-5-/--8-\-7-10p-5*-5-/--8-\-7-10p-5-5-7-/--8-\-7-10p-| 
E |---------------8-p----------------8p----------------8p-----------------8p-| 

E |--------------------------------------------------------------------------| 
B |--------------------------------------------------------------------------| 
G |-7*-7-/-10-\-9-----7*-7-/-10-\-9-----7*-7-/-10-\-9-----7-7-7-/-10-\-9-----| 
D |-7*-7-/-10-\-9-10p-7*-7-/-10-\-9-10p-7*-7-/-10-\-9-10p-7-7-7-/-10-\-9-10p-| 
A |-5*-5-/--8-\-7-10p-5*-5-/--8-\-7-10p-5*-5-/--8-\-7-10p-5-5-7-/--8-\-7-10p-| 
E |---------------8-p----------------8p----------------8p-----------------8p-| 

Bridge 

E |-------------------------------------------| 
B |-------------------------------------------| 
G |-7-7-7-7-7-7-7--10-----7-7-7-7-7-7-7----10-| 
D |-7-7-7-7-7-7-7--10-10--7-7-7-7-7-7-7--8-10-| 
A |-5-5-5-5-5-5-5---8-10--5-5-5-5-5-5-5--8--8-| 
E |--------------------8-----------------6----| 
     |----pm-----|         |----pm-----| 

E |-------------------------------------------| 
B |-------------------------------------------| 
G |-7-7-7-7-7-7-7--10-----7-7-7-7-7-7-7----10-| 
D |-7-7-7-7-7-7-7--10-10--7-7-7-7-7-7-7--8-10-| 
A |-5-5-5-5-5-5-5---8-10--5-5-5-5-5-5-5--8--8-| 
E |--------------------8-----------------6----| 
     |----pm-----|         |----pm-----| 

Outro 

E |---------------------------------------------------------------------| 
B |---------------------------------------------------------------------| 
G |-7-/-10----7-/-10----7-/-10----7p--7-/-10----7-/-10----7-/-10----7*p-| 
D |-7-/-10-10-7-/-10-10-7-/-10-10-7p--7-/-10-10-7-/-10-10-7-/-10-10-7*p-| 
A |-5-/--8-10-5-/--8-10-5-/--8-10-5p--5-/--8-10-5-/--8-10-5-/--8-10-5*p-| 
E |---------8---------8---------8-------------8---------8---------8-----|
Comments