Afi - High School Football Hero Chords & Tabs

 

High School Football Hero Chords & Tabs

Afi Chords & Tabs

Version: 1 Type: Chords 0 ratings
1 star 2 stars 3 stars 4 stars 5 stars
comments

High School Football Hero Chords

This song is short but sweet and fun to play, and it kicks serious 
ass. For the rythym just listen to the song, but the chords are 100% 
correct.

Intro/Chorus
E------------------------------------------------------------------
B------------------------------------------------------------------
G------------------------------7-7-5-5-------------------5-5-------
D--7--------7-------7--7--7--7-7-7-5-5-5--7--7--7--7-5-5-5-5-5-----
A--7--------7-------7--7--7--7-5-5-3-3-5--7--7--7--7-5-5-3-3-5-----
E--5--------5-------5--5--5--5---------3--5--5--5--5-3-3-----3-----
[ Tab from: http://www.guitartabs.cc/tabs/a/afi/high_school_football_hero_crd.html ]
Verse
E-----------------------------------------------------------------
B-----------------------------------------------------------------
G----------7-7-7-7---------7-7-7-7---------7-7-7-7---------9-9-9-9
D--7-7-7-7-7-7-7-7-5-5-5-5-7-7-7-7-7-7-7-7-7-7-7-7-5-5-5-5-9-9-9-9
A--7-7-7-7-5-5-5-5-5-5-5-5-5-5-5-5-7-7-7-7-5-5-5-5-5-5-5-5-7-7-7-7
E--5-5-5-5---------3-3-3-3---------5-5-5-5---------3-3-3-3--------

Intro-4Xs
Verse-2Xs
Chorus-4Xs
Verse-2Xs
Chorus-8Xs

8th time end with this
E------------------------------------------------------------------
B------------------------------------------------------------------
G-------------7-7-5-5-------------------5-5------------------------
D--7--7--7--7-7-7-5-5-5--7--7--7--7-5-5-5-5-5--7---7---7-7-7-------
A--7--7--7--7-5-5-3-3-5--7--7--7--7-5-5-3-3-5--7---7---7-7-7-(HIKE!)
E--5--5--5--5---------3--5--5--5--5-3-3-----3--5---5---5-5-5-------


Comments