Afi - High School Football Hero Chords & Tabs

 

High School Football Hero Chords & Tabs

Afi Chords & Tabs

Version: 1 Type: Bass Tab 0 ratings
1 star 2 stars 3 stars 4 stars 5 stars
comments

High School Football Hero Bass Tab

   
#----------------------------------PLEASE NOTE---------------------------------#
#This file is the author's own work and represents their interpretation of the-#
#song. You may only use this file for private study, scholarship, or research.-#
#------------------------------------------------------------------------------#

AFI - Highschool Football Hero
Submitted By: Sqweeky
EMail: Blindside831@aol.com


[ Tab from: http://www.guitartabs.cc/tabs/a/afi/high_school_football_hero_btab.html ]
Verse 6x 
G|-----------------------------------| 
D|-----------------------------------| 
A|---------5-5-3---------------3-3-3-| 
E|-5-5-5-5-------3-5-5-5-5-3-3-------| 

Chorus 2x 
G|-----------------------------------------------------------------| 
D|-----------------------------------------------------------------| 
A|---------5-5-5-5---------5-5-5-5---------5-5-5-5---------7-7-7-7-| 
E|-5-5-5-5---------3-3-3-3---------5-5-5-5---------3-3-3-3---------| 

repeat Verse 4x 
repeat Chorus 2x 
repeat Verse 8x 

End 
G|-----------| 
D|-----------| 
A|-----------| 
E|-5-5-5-5-5-|
Comments