Afi - Hearts Frozen Soil Sod Once More By The Spring Of Rage Despair And Hopelessness Chords & Tabs

 

Hearts Frozen Soil Sod Once More By The Spring Of Rage Despair And Hopelessness Chords & Tabs

Afi Chords & Tabs

Version: 2 Type: Bass Tab 0 ratings
1 star 2 stars 3 stars 4 stars 5 stars
comments

Hearts Frozen Soil Sod Once More By The Spring Of Rage Despair And Hopelessness Bass Tab

Hearts Frozen Soil Sod Once More By The Spring Of Rage, Despair, And Hopelessness
by: AFI

tabbed by: Amanda G
bassist: Hunter Burgan



Intro 1x
G:-----------------0420----------0---------------0--------
D:-------0000---22----------------420000--222222--420-----
A:-----23-----3-------333333-------------2-----------320--
E:3333-----------------------333------------------------3-
[ Tab from: http://www.guitartabs.cc/tabs/a/afi/hearts_frozen_soil_sod_once_more_by_the_spring_of_rage_despair_and_hopelessness_btab_ver_2.html ]
Verse 1x
G:-----------------------
D:------------------0000-
A:---3-----3-----3-------
E:000-3-000-3-000-3------

Outro 1x
G:-----------------0420---000----0-----20----0420754-----
D:------0000---0-22---------------42000--4-22------------
A:----23-----23--------333--------------------------333--
E:3333------------------------333----------------------3-

This is really easy song that sounds great.
Comments