Afi - Head Like A Hole Chords & Tabs

 

Head Like A Hole Chords & Tabs

Afi Chords & Tabs

Version: 2 Type: Tab 0 ratings
1 star 2 stars 3 stars 4 stars 5 stars
comments

Head Like A Hole Tab

   
Title: "Head Like a Hole" (Nine Inch Nails cover song)
Tabbed By: Jared Pattynama
Artist: Afi
Guitarist:Jade Puget
Album: Actually it's on the "Grand Theft Auto: San Andres" game.

Tuning: standred       eADGBE

Key:    h= hammer
           p= pull
           /= slide up
           \= slide down
           *= let ring
           b= bend
           ( )= # inside is the note to bend to

Ok, so I've been waiting for a tab of this song to come out so I could see if I got the song right,
but no one's tabbed it yet so I figured I'd see what you all think...
Now most of the song is the power chords where you have a finger on the "A" and the "G" 
and you mute the "D" string.With the other chords you can

do the whole chord, the minor, or the power chord. Which ever you think sounds the best, 
I like the minor chords the most.

Intro:
e|-----------------------------------------------------------------------|
B|-----------------------------------------------------------------------|
G|-9------10----7/9------------------7/9---9-----10----7/9---------------|
D|-x-------x-----x/x-----7------5----x/x---x-----x-----x/x----7-----5-2--|
A|-7-------8-----5/7-----7------5----5/7---7-----8-----5/7----7-----5-2--|
E|----0-0-----0-------0--5-0-0-3-0------0---0-0-----0-----0--5-0--3-0----|      Repeat several times

Verse:
e|------------------------------------------------|--------------------|
B|------------------------------------------------|--------------------|
G|------------------------------------------------|--------------------|
D|------------------------------------------------|--------------------|
A|------------------------------------------------|--------------------|
E|-12-0-0-13-0-10h12-0-5-0-0-3-0-10h12-|--0-12-0-0-13-10h12-0-5-0-3-0--|   x2

Pre-Chorus:
e|----    ----       -------    ------       |--------------------------------------|
B|----    ----       -------    ------       |--------------------------------------|
G|-9--    -7--       -------    -------      |-9--      -5--      -10-      -12--|
D|-x-- x8 -x-- x8    --7--- x8  --5----  x8  |-x--  x8  -x--  x8  --x-  x8  --x---|
A|-7--    -5--       -- 7---    --5----      |-7--      -7--      --8-      -10--|
E|-----   -----      --5---     --3----      |----      ----      ----       ------|


Chorus:
e|-------------------------------------------------|
B|-------------------------------------------------|
G|-7-7---9-9-9-9--/-10---5--7-7-7-7-/-10-----------|
D|-x-x---x-x-x-x--/--x----x--x-x-x-x-/--x----------|
A|-5-5---7-7-7-7--/--8----3--5-5-5-5-/--8----------|
E|-0-0---0-0-0-0---/-0----0--0-0-0-0-/--0----------|
[ Tab from: http://www.guitartabs.cc/tabs/a/afi/head_like_a_hole_tab_ver_2.html ]
e|---------------------------------------|
B|---------------------------------------|
G|-12-14-14-12-14---12-14-14-12-14-------|
D|--x--x---x--x---x-----x--x---x--x---x--|
A|-10-12-12-10-12---10-12-12-10-12-------|
E|--0---0--0---0--0-----0--0---0--0---0--|  On this part it sounds good if you slide in between the chords.

After Chorus: for this part I can't hear a guitar in the song, but I don't like just 
there doung nothing so I play this.
e|-------------------------------------------|
B|-------------------------------------------|
G|-9-------10-------7----7----7---7/9--------|
D|-x--------x--------x----x----x---x/x-------|
A|-7--------8--------5----5----5---5/7-------|
E|----0--0-----0--0---0-0--0-0--0------------|    x4

Then play the intro x2

Bridge:
e|---------------------------------------------|
B|---------------------------------------------|
G|--/9*-9-\7*--2*-\1*---/9*-9-\7*-2*-\0--------|
D|---------------------------------------------|
A|---------------------------------------------|
E|---------------------------------------------|

e|---------------------------------------------------|
B|---------------------------------------------------|
G|--/9*-9-\7*--2*-\1*----/-9*--10*--12*--14*---------|
D|-------------------------/-x----x----x-----x-------|
A|-------------------------/-7*---8*--10*--12*-------|
E|---------------------------------------------------|

Then there's the little drum solo, and you don't play anything, unless you want to make
a solo to put in there...
This sounds pretty sick!

Solo (not relly needed, but sounds cool)
e|--5p3p0-5p3p0-5p3p0-5p3p0-5p3p0-5p3p0-5p3p0-5p3p0--7p5p0-7p5p0-7p5p0-7p5p0-7p5p0-7p5p0-7p5p0-7p5p0--|
B|----------------------------------------------------------------------------------------------------|
G|----------------------------------------------------------------------------------------------------|
D|----------------------------------------------------------------------------------------------------|
A|----------------------------------------------------------------------------------------------------|
E|----------------------------------------------------------------------------------------------------|

cont.
e|-10-0-0-12-0-0-13-0-0-15-0-0-13-0-12--12h13p12-10-8-10b-(12)-----------------------|
B|-----------------------------------------------------------------------------------|
G|-----------------------------------------------------------------------------------|
D|-----------------------------------------------------------------------------------|
A|-----------------------------------------------------------------------------------|
E|-----------------------------------------------------------------------------------|

Last Chorus:
e|-----------------------------------------|
B|-----------------------------------------|
G|-16-14--16-14----17-16--17-16------------|
D|--x--x----x--x------x--x----x--x---------|
A|-14-12--14-12----15-14--15-14------------|
E|-----------------------------------------|

End On:
e|--------------|
B|--------------|
G|-7-7----------|
D|-x-x---2*-----|
A|-5-5---2*-----|
E|--0-0---0*----|

Dang that took awhile to do, PROPS TO THE GUYS WHO DO THIS ALOT
Well please rate and correct, enjoy
Comments