Afi - Head Like A Hole Chords & Tabs

 

Head Like A Hole Chords & Tabs

Afi Chords & Tabs

Version: 1 Type: Tab 0 ratings
1 star 2 stars 3 stars 4 stars 5 stars
comments

Head Like A Hole Tab

AFI - Head Like A Hole
Intro:
e|--------------------------------------------|
B|--------------------------------------------|
G|--------------------------------------------|
D|--------------------------------------------|
A|--------------------------------------------|
E|12-0-0-13-0-0-10-0-0-5-0-0-4-5-4-0----------|
[ Tab from: http://www.guitartabs.cc/tabs/a/afi/head_like_a_hole_tab.html ]
Verse Bass:
e|--------------------------------------------|
B|--------------------------------------------|
G|--------------------------------------------|
D|--------------------------------------------|
A|--------------------------------------------|
E|12-0-0-13-0-0-10-0-0-5-0-0-4-5-4-0----------|

Chorus:
e|-----------------------------------------------------------------|
B|-----------------------------------------------------------------|
G|-9-9-9-9-9-9-10-9-9-9-9-9-10-7-7-7-7-7-7-8-7-9-9-9-9-9-10-9------|
D|-9-9-9-9-9-9-10-9-9-9-9-9-10-7-7-7-7-7-7-8-7-9-9-9-9-9-10-9------|
A|-7-7-7-7-7-7-8--7-7-7-7-7-8--5-5-5-5-5-5-6-5-7-7-7-7-7--8-7------|
E|-----------------------------------------------------------------|
Comments