Afi - He Who Laughs Last Chords & Tabs

 

He Who Laughs Last Chords & Tabs

Afi Chords & Tabs

Version: 1 Type: Bass Tab 0 ratings
1 star 2 stars 3 stars 4 stars 5 stars
comments

He Who Laughs Last Bass Tab

AFI
SONG: HE WHO LAUGHS LAST




-----------------------------------------------------------------
-----------------------------------------------------------------
55555555--33333333--222222222222---------------------------------
-----------------------------------------------------------------


-----------------------------------------------------------------
-----------------------------------------------------------------
5555-8888-10-10-10-10-3333-5555-8888-10-10-10-10-33-5555-8888-10-10-10
----------------------------------------------------------------


-----------------------------------------------------------------
-----------------------------------------------------------------
10-10-10-10-10--5555--8888--10-10-10-10--3333--------------------

[ Tab from: http://www.guitartabs.cc/tabs/a/afi/he_who_laughs_last_btab.html ]
-------------------------------------|---------------------
-------------------------------------|---------------------
55555555-----------------------------|----------------------00-
-----------------5555--3333----------|----0-2-2--0-2-2--00-------


-----------------------------------------------------------------
-----------------------------------------------------------------
55555555--7--88888888--55555555--7-------------------------------
--------------------------------------------------------88888888-

-----------------------------------------------------------------
9-9-8-8-7--9-9-8-8-7--9-9-8-8-7--9-8-7---------------------------
------------------------------------------------------10---------
-----------------------------------------------------------------




TABED BY: CHRIS


Comments