Afi - Halloween Chords & Tabs

 

Halloween Chords & Tabs

Afi Chords & Tabs

Version: 7 Type: Tab 0 ratings
1 star 2 stars 3 stars 4 stars 5 stars
comments

Halloween Tab

   
AFI
Halloween
Tabbed by Gary t (gary_t44@yahoo.com)

Intro:
e|---|
B|---|
G|---|
D|-0-|
A|-0-|
E|-0-|

verse:
e|--------------------------------------------------------------|
B|--------------------------------------------------------------|
G|--------------------------------------------------------------|
D|--------------------------------------------------------------|
A|--7-7-7-7-7-7-7-7---10-10-10-10-10-10-10-10--3-3-3-3--5-5-5-5-|
E|--5-5-5-5-5-5-5-5---8--8--8--8--8--8--8--8---1-1-1-1--3-3-3-3-|

play this during the verse when he's not singing:
e|---------------------------------|
B|---------------------------------|
G|---------------------------------|
D|---------------------------------|
A|-7-7-7-7-7-7-7-7-8-8-8-8-8-8-8-8-|
E|-5-5-5-5-5-5-5-5-5-5-5-5-5-5-5-5-|
[ Tab from: http://www.guitartabs.cc/tabs/a/afi/halloween_tab_ver_7.html ]
Interlude: this is played once right before the chorus
e|-----------------------------------------|
B|-----------------------------------------|
G|-9-9-10-10-9-9-10-10-9-9-10-10-9-9-10-10-|
D|-9-9-10-10-9-9-10-10-9-9-10-10-9-9-10-10-|
A|-7-7-8--8--7-7-8--8--7-7-8--8--7-7-8--8--|
E|-----------------------------------------|

Chorus:
e|-----------------------------------------|
B|-----------------------------------------|
G|-----------------------------------------|
D|-7-7-7-7-7-7-7-7-------------------------|
A|-7-7-7-7-7-7-7-7-10-10-10-10-10-10-10-10-|
E|-5-5-5-5-5-5-5-5-8--8--8--8--8--8--8--8--|

This next part isn't actually part of the song, but this is just how I end the song
instead of fading out. after the last chorus play the interlude again and then this:

e|----------------------------------|
B|----------------------------------|
G|----------------------------------|
D|-7-7-7-7-5-5-5-5--2~---7---5---2~-|
A|-7-7-7-7-5-5-5-5--2~---7---5---2~-|
E|-5-5-5-5-3-3-3-3--0~---5---3---0~-|
if you turn the distortion way up it sounds better.
Comments