Afi - Halloween Chords & Tabs

 

Halloween Chords & Tabs

Afi Chords & Tabs

Version: 6 Type: Tab 0 ratings
1 star 2 stars 3 stars 4 stars 5 stars
comments

Halloween Tab

Artist: Afi (Misfits Cover)
Song: Halloween

Intro
|--------------------------|
|--------------------------|
|--------------------------|
|-4~---4~-----4~---4~------|
|-4~---4~-----4~---4~------|
|-2~---2~-----2~---2~------|

Verse
|------------------------------------------------|
|------------------------------------------------|
|-----------7-77777777---------------------------|
|-9-9999999-7-77777777-4-5-5-5--4-7-7-7--4-9-9-9-|x2
|-9-9999999-5-55555555-4-5-5-5--4-7-7-7--4-9-9-9-|
|-7-7777777------------2-3-3-3--2-5-5-5--2-7-7-7-|
[ Tab from: http://www.guitartabs.cc/tabs/a/afi/halloween_tab_ver_6.html ]
Fill
|---------------------------|
|---------------------------|
|---------------------------|
|-99999999-101010101010109--|
|-99999999-9-9-9-9-9-9-9-9--|
|-77777777-7-7-7-7-7-7-7-7--|

|-----------------------------|
|-----------------------------|
|-----------------------------|
|-4-4-5-5-5--4-4-5-5-5--------|x2
|-4-4-5-5-5--4-4-5-5-5--------|
|-2-2-3-3-3--2-2-3-3-3--------|

Chorus
|--------------------|
|--------------------|
|--------------------|
|-99999999-77777777--|x2
|-99999999-77777777--|
|-77777777-55555555--|

Outro
|--------------------------------|
|--------------------------------|
|--------------------------------|
|-99999999-77777777-55555555-4~--|
|-99999999-77777777-55555555-4~--|
|-77777777-55555555-33333333-2~--|
Comments