Afi - Halloween Chords & Tabs

 

Halloween Chords & Tabs

Afi Chords & Tabs

Version: 4 Type: Tab 0 ratings
1 star 2 stars 3 stars 4 stars 5 stars
comments

Halloween Tab

AFI - Halloween
[ Tab from: http://www.guitartabs.cc/tabs/a/afi/halloween_tab_ver_4.html ]
Intro
e|-4-4---------------------------------------|
B|-4-4---------------------------------------|
G|-4-4---------------------------------------|
D|-4-4---------------------------------------|
A|-4-4---------------------------------------|
E|-2-2---------------------------------------|
Verse
e|-------------------------------------------|
B|-------------------------------------------|
G|-4-7----------4---------4------------------|
D|-4-7--4/5--7--4--4/5--7-4------------------|
A|-2-5--4/5--7--2--4/5--7-2------------------|
E|------2/3--5-----2/3--5--------------------|
Pre Chorus
e|-------------------------------------------|
B|-------------------------------------------|
G|-----------------4-4-4---------------------|
D|-4-5-4-5-4-5-4-5-4-4-4-4-5-4-5-4-5-4-5-----|
A|-4-5-4-5-4-5-4-5-2-2-2-4-5-4-5-4-5-4-5-----|
E|-2-3-2-3-2-3-2-3-------2-3-2-3-2-3-2-3-----|
Chorus
e|---------------|
B|---------------|
G|-4---4---------|
D|-4-7-4-7-------|
A|-2-7-2-7-------|
E|---5---5-------|
Comments