Afi - Halloween Chords & Tabs

 

Halloween Chords & Tabs

Afi Chords & Tabs

Version: 2 Type: Tab 1 rating
1 star 2 stars 3 stars 4 stars 5 stars
comments

Halloween Tab

   
Artist: AFI
Song: Halloween (Misfits cover)
Album: All Hollows EP
Standard Tuning

Intro
e|--------------------| 
B|--------------------| 
G|--12~--12~--12------| 
D|--12~--12~--12------| 
A|--10~--10~--10------| 
E|--------------------|


Verse
e|-------------------------------------------------|       
B|-------------------------------------------------|       
G|-----------------7-7-7-7-7-7-7-7-----------------| 
D|-9-9-9-9-9-9-9-9-7-7-7-7-7-7-7-7-5-5-5-5-7-7-7-7-|       
A|-9-9-9-9-9-9-9-9-5-5-5-5-5-5-5-5-5-5-5-5-7-7-7-7-|
E|-7-7-7-7-7-7-7-7-----------------3-3-3-3-3-3-3-3-|


Bridge (played between the two first verses)
e|---------------------------------|
B|---------------------------------|
G|---------------------------------|
D|-9-9-9-9-9-9-9-9-9-9-9-9-9-9-9-9-|
A|-9-9-9-9-9-9-9-9-9-9-9-9-9-9-9-9-|
E|-7-7-7-7-7-7-7-7-7-7-7-7-7-7-7-7-|



Pre-chorus 

e|-----|
B|-----|
G|-4-5-|
D|-4-5-|
A|-2-3-|
E|-----|
(play 4 times)

e|---------------------------------|
B|---------------------------------|
G|---------------------------------|
D|-9-9-9-9-9-9-9-9-9-9-9-9-9-9-9-9-|
A|-9-9-9-9-9-9-9-9-9-9-9-9-9-9-9-9-|
E|-7-7-7-7-7-7-7-7-7-7-7-7-7-7-7-7-|


e|---------------|
B|---------------|
G|-4-5-4-5-4-5-4-|
D|-4-5-4-5-4-5-4-|
A|-2-3-2-3-2-3-2-|
E|---------------|




Chorus (play as many times as needed)
[ Tab from: http://www.guitartabs.cc/tabs/a/afi/halloween_tab_ver_2.html ]
e|---------------------------------|
B|---------------------------------|
G|---------------------------------|
D|-9-9-9-9-9-9-9-9-7-7-7-7-7-7-7-7-|
A|-9-9-9-9-9-9-9-9-7-7-7-7-7-7-7-7-|
E|-7-7-7-7-7-7-7-7-5-5-5-5-5-5-5-5-|


Verse
e|-------------------------------------------------|       
B|-------------------------------------------------|       
G|-----------------7-7-7-7-7-7-7-7-----------------| 
D|-9-9-9-9-9-9-9-9-7-7-7-7-7-7-7-7-5-5-5-5-7-7-7-7-|       
A|-9-9-9-9-9-9-9-9-5-5-5-5-5-5-5-5-5-5-5-5-7-7-7-7-|
E|-7-7-7-7-7-7-7-7-----------------3-3-3-3-3-3-3-3-|

Chorus (play as many times as needed)

e|---------------------------------|
B|---------------------------------|
G|---------------------------------|
D|-9-9-9-9-9-9-9-9-7-7-7-7-7-7-7-7-|
A|-9-9-9-9-9-9-9-9-7-7-7-7-7-7-7-7-|
E|-7-7-7-7-7-7-7-7-5-5-5-5-5-5-5-5-|


Outro

e|-------------------------------------------------------|
B|-------------------------------------------------------|
G|---------------------------------------------------12~-|
D|-9-9-9-9-9-9-9-9-7-7-7-7-7-7-7-7-9-9-9-9-9-9-9-9---12~-|
A|-9-9-9-9-9-9-9-9-7-7-7-7-7-7-7-7-9-9-9-9-9-9-9-9---10~-|
E|-7-7-7-7-7-7-7-7-5-5-5-5-5-5-5-5-7-7-7-7-7-7-7-7-------|


This is the power chord version of this song, you can play it as
barre if you like to. Actually, Jade probably plays it as barre since
that's what he majorly uses.

Any comments or corrections please e-mail me at 
doyou_knowit@hotmail.com
Comments