Afi - God Called In Sick Today Chords & Tabs

 

God Called In Sick Today Chords & Tabs

Afi Chords & Tabs

Version: 5 Type: Tab 0 ratings
1 star 2 stars 3 stars 4 stars 5 stars
comments

God Called In Sick Today Tab

this is just the intro, verse 1 and 2, and the chorus. any comments, email at l1lwang@yahoo.com. first tab peeps.
[ Tab from: http://www.guitartabs.cc/tabs/a/afi/god_called_in_sick_today_tab_ver_5.html ]
intro
e|--------------------------------------------------|
B|--------------------------------------------------|
G|------3-----3---------2-----2---------2-----2-----|
D|--5-5---5-5---5-5-3-3---3-3---3-3-0-0---0-0---0-0-|
A|--------------------------------------------------|
E|--------------------------------------------------|
    1 & 2 & 3 & 4 & 1 & 2 & 3 & 4 & 1 & 2 & 3 & 4 &
e|--------------------------------------------------|
B|--------------------------6-----------------------|
G|------3-----3---------3-----3---------2-----2-----|
D|--1-1---1-1---1-1-5-5---5-----5-5-3-3---3-3---3-3-|
A|--------------------------------------------------|
E|--------------------------------------------------|
    1 & 2 & 3 & 4 & 1 & 2 & 3 & 4 & 1 & 2 & 3 & 4 &
e|--------------------------------------------------|
B|--------------------------------------------------|
G|------2-3-2-----------3-----3---------------------|
D|--0-0---------0-0-1-1---1-1---1-1-----------------|
A|--------------------------------------------------|
E|--------------------------------------------------|
    1 & 2 & 3 & 4 & 1 & 2 & 3 & 4 &
verse 1
e|--------------------------------------------------|
B|--------------------------------------------------|
G|------3-----3---------2-----2---------2-----2-----|
D|--5-5---5-5---5-5-3-3---3-3---3-3-0-0---0-0---0-0-|
A|--------------------------------------------------|
E|--------------------------------------------------|
    1 & 2 & 3 & 4 & 1 & 2 & 3 & 4 & 1 & 2 & 3 & 4 &
e|--------------------------------------------------|
B|--------------------------6-----------------------|
G|------3-----3---------3-----3---------2-----2-----|
D|--1-1---1-1---1-1-5-5---5-----5-5-3-3---3-3---3-3-|
A|--------------------------------------------------|
E|--------------------------------------------------|
    1 & 2 & 3 & 4 & 1 & 2 & 3 & 4 & 1 & 2 & 3 & 4 &
e|--------------------------------------------------|
B|--------------------------------------------------|
G|------2-3-2-----------3-----3-----3-3-3-3-3-3-3-3-|
D|--0-0---------0-0-1-1---1-1---1-1-5-5-5-5-5-5-5-5-|
A|--------------------------------------------------|
E|--------------------------------------------------|
    1 & 2 & 3 & 4 & 1 & 2 & 3 & 4 & 1 & 2 & 3 & 4 &
                                    |--p.m.---------
e|--------------------------------------------------|
B|--------------------------------------------------|
G|--2-2-2-2-2-2-2-2-2-2-2-2-2-2-2-2-3-3-3-3-3-3-3-3-|
D|--3-3-3-3-3-3-3-3-0-0-0-0-0-0-0-0-1-1-1-1-1-1-1-1-|
A|--------------------------------------------------|
E|--------------------------------------------------|
    1 & 2 & 3 & 4 & 1 & 2 & 3 & 4 & 1 & 2 & 3 & 4 &
    ------------------------------------------------
e|--------------------------------------------------|
B|--------------------------------------------------|
G|--3-3-3-3-3-3-3-3-2-2-2-2-2-2-2-2-2-2-2-2-2-2-2-2-|
D|--5-5-5-5-5-5-5-5-3-3-3-3-3-3-3-3-0-0-0-0-0-0-0-0-|
A|--------------------------------------------------|
E|--------------------------------------------------|
    1 & 2 & 3 & 4 & 1 & 2 & 3 & 4 & 1 & 2 & 3 & 4 &
    ----------------------end p.m.| |distortion----
e|---------------------|
B|---------------------|
G|--3-3-3-3-3-3-3-3----|
D|--1-1-1-1-1-1-1-1----|
A|---------------------|
E|---------------------|
    1 & 2 & 3 & 4 &
    --------------|
chorus----distorted
e|--------------------------------------------------|
B|--------------------------------------------------|
G|--3---3-3-5-5-5-5-----------------3---3-3-5-5-5-5-|
D|--3---3-3-5-5-5-5-5---5-5-3-3-3-3-3---3-3-5-5-5-5-|
A|--1---1-1-3-3-3-3-5---5-5-3-3-3-3-1---1-1-3-3-3-3-|
E|------------------3---3-3-1-1-1-1-----------------|
    1 & 2 & 3 & 4 & 1 & 2 & 3 & 4 & 1 & 2 & 3 & 4 &
e|--------------------------------------------------|
B|--------------------------------------------------|
G|------------------3-------------------------------|
D|--5---5-5-3-3-3-3-3-------------------------------|
A|--5---5-5-3-3-3-3-1-------------------------------|
E|--3---3-3-1-1-1-1---------------------------------|
    1 & 2 & 3 & 4 & 1 & 2 & 3 & 4 & 
verse 2---distorted
e|--------------------------------------------------|
B|--------------------------------------------------|
G|------3-----3---------2-----2---------2-----2-----|
D|--5-5---5-5---5-5-3-3---3-3---3-3-0-0---0-0---0-0-|
A|--------------------------------------------------|
E|--------------------------------------------------|
    1 & 2 & 3 & 4 & 1 & 2 & 3 & 4 & 1 & 2 & 3 & 4 &
    |p.m.------------------------------------------
e|--------------------------------------------------|
B|--------------------------6-----------------------|
G|------3-----3---------3-----3---------2-----2-----|
D|--1-1---1-1---1-1-5-5---5-----5-5-3-3---3-3---3-3-|
A|--------------------------------------------------|
E|--------------------------------------------------|
    1 & 2 & 3 & 4 & 1 & 2 & 3 & 4 & 1 & 2 & 3 & 4 &
    ----------------------|     |p.m.-------------- 
e|--------------------------------------------------|
B|--------------------------------------------------|
G|------2-3-2-----------3-----3-----3-3-3-3-3-3-3-3-|
D|--0-0---------0-0-1-1---1-1---1-1-5-5-5-5-5-5-5-5-|
A|--------------------------------------------------|
E|--------------------------------------------------|
    1 & 2 & 3 & 4 & 1 & 2 & 3 & 4 & 1 & 2 & 3 & 4 &
    --|         |p.m.-------------------------|    
e|--------------------------------------------------|
B|--------------------------------------------------|
G|--2-2-2-2-2-2-2-2-2-2-2-2-2-2-2-2-3-3-3-3-3-3-3-3-|
D|--3-3-3-3-3-3-3-3-0-0-0-0-0-0-0-0-1-1-1-1-1-1-1-1-|
A|--------------------------------------------------|
E|--------------------------------------------------|
    1 & 2 & 3 & 4 & 1 & 2 & 3 & 4 & 1 & 2 & 3 & 4 &
    |p.m.-----|     |p.m.-----|     |p.m.-----|    
e|--------------------------------------------------|
B|--------------------------------------------------|
G|--3-3-3-3-3-3-3-3-2-2-2-2-2-2-2-2-2-2-2-2-2-2-2-2-|
D|--5-5-5-5-5-5-5-5-3-3-3-3-3-3-3-3-0-0-0-0-0-0-0-0-|
A|--------------------------------------------------|
E|--------------------------------------------------|
    1 & 2 & 3 & 4 & 1 & 2 & 3 & 4 & 1 & 2 & 3 & 4 &
    |p.m.-----|     |p.m.-----|     |p.m.-----|   
e|---------------------|
B|---------------------|
G|--3-3-3-3-3-3-3-3----|
D|--1-1-1-1-1-1-1-1----|
A|---------------------|
E|---------------------|
    1 & 2 & 3 & 4 &
    
Comments