Afi - God Called In Sick Today Chords & Tabs

 

God Called In Sick Today Chords & Tabs

Afi Chords & Tabs

Version: 4 Type: Tab 0 ratings
1 star 2 stars 3 stars 4 stars 5 stars
comments

God Called In Sick Today Tab

Author/Artist: afi 
Title: god called in sick today 
Album: art of drowning 
Transcribed by: jesse 
Email: big_j_trippin@hotmail.com 

only the intro but it is correct 
[ Tab from: http://www.guitartabs.cc/tabs/a/afi/god_called_in_sick_today_tab_ver_4.html ]
------------------------------------------------------------------------------ 
------------------------------------------------------------------------------ 
-----3-----3---------2-----2---------2-----2---------3-----3------------------ 
-5-5---5-5---5-5-3-3---3-3---3-3-0-0---0-0---0-0-1-1---1-1---1-1-0------------ 
------------------------------------------------------------------------------ 
------------------------------------------------------------------------------ 
                                                                               

------------------------------------------------------------------------------ 
---------6-------------------------------------------------------------------- 
-----3-----3---------2-----2---------2-3-2-----------3-----3------------------ 
-5-5---5-----5-5-3-3---3-3---3-3-0-3-------3-0-0-1-1---1-1---1-1-0------------ 
------------------------------------------------------------------------------ 
------------------------------------------------------------------------------ 
                                               i hope it dont suck             


Comments