Afi - God Called In Sick Today Chords & Tabs

 

God Called In Sick Today Chords & Tabs

Afi Chords & Tabs

Version: 3 Type: Tab 0 ratings
1 star 2 stars 3 stars 4 stars 5 stars
comments

God Called In Sick Today Tab

#----------------------------------PLEASE NOTE--------------------------------#
#This file is the author's own work and represents their interpretation of the#
#song. You may only use this file for private study, scholarship, or research.#
#-----------------------------------------------------------------------------#
#-- File created with Instab - http://www.pconline.com/~smcarey/instab.html --#
#-----------------------------------------------------------------------------#

Author/Artist: afi
Title: god called in sick today
Transcribed by: zack yeager
Email: yeager_zack@hotmail.com

this is EXACT

------------------------------------------------------------------------------
------------------------------------------------------------------------------
------3---------3---3----------2---------2----2-----------2--------2----------
-5-5------5-5-----5------3-3-------3-3------3-------0-0-------0-0-------------
------------------------------------------------------------------------------
------------------------------------------------------------------------------
                                                                              
[ Tab from: http://www.guitartabs.cc/tabs/a/afi/god_called_in_sick_today_tab_ver_3.html ]
------------------------------------------------------------------------------
------------------------------------------------6-----------------------------
-----2---------3-------3------3-----------3---------3-----3-------------------
-0--------1-1-----1-1------1--------5-5------5---------5----------------------
------------------------------------------------------------------------------
------------------------------------------------------------------------------
                                                                              

------------------------------------------------------------------------------
------------------------------------------------------------------------------
------2-------2----2---------2-3-2----------------3-------3----3--------------
-3-3-----3-3-----3------0-3--------3-0-3-----1-1-----1-1-----1----------------
------------------------------------------------------------------------------
------------------------------------------------------------------------------
                                                                              

------------------------------------------------------------------------------
------------------------------------------------------------------------------
-3-3-3-3-3-3-3-3--2-2-2-2-2-2-2-2--2-2-2-2-2-2-2-2--3-3-3-3-3-3-3-3-----------
-5-5-5-5-5-5-5-5--3-3-3-3-3-3-3-3--0-0-0-0-0-0-0-0--1-1-1-1-1-1-1-1-----------
------------------------------------------------------------------------------
------------------------------------------------------------------------------
  THIS IS RIGHT GET THE RYTHM FROM THE SONG                                   

------------------------------------------------------------------------------
------------------------------------------------------------------------------
-3-3-3-3-3-3-3-3--2-2-2-2-2-2-2-2--2-2-2-2-2222--333333333--------------------
-5-5-5-5-5-5-5-5--3-3-3-3-3-3-3-3--0-0-0-0-0000--111111111--------------------
------------------------------------------------------------------------------
------------------------------------------------------------------------------
                                                                              

Comments