Afi - God Called In Sick Today Chords & Tabs

 

God Called In Sick Today Chords & Tabs

Afi Chords & Tabs

Version: 2 Type: Tab 5 ratings
1 star 2 stars 3 stars 4 stars 5 stars
comments

God Called In Sick Today Tab

   
i was sick of seeing this tabbed wrong so here it is.

intro and verse
e ----------------------------------------------------------------
B ----------------------------------------------------------------
G -----3-----3---------2-----2---------2-----2---------3-----3----
D -5-5---5-5---5-5-3-3---3-3---3-3-0-0---0-0---0-0-1-1---1-1---1-0
A ----------------------------------------------------------------
E ----------------------------------------------------------------

e ----------------------------------------------------------------
B ---------6------------------------------------------------------
G -----3-----3---------2-----2---------2-3-2-----------3-----3----
D -5-5---5-----5-5-3-3---3-3---3-3-0-3-------3-0-0-1-1---1-1---1-0
A ----------------------------------------------------------------
E ---------------------------------------------------------------- 
[ Tab from: http://www.guitartabs.cc/tabs/a/afi/god_called_in_sick_today_tab_ver_2.html ]
pre-chorus
e ----------------------------------------------------------------
B ----------------------------------------------------------------
G ----------------------------------------------------------------
D -5-5-5-5-5-5-5-5-3-3-3-3-3-3-3-3-0-0-0-0-0-0-0-0-1-1-1-1-1-1-1-1
A ----------------------------------------------------------------
E ----------------------------------------------------------------   

e ----------------------------------------------------------------
B ----------------------------------------------------------------
G ---------------------------------7-7-7-7-7-7-7-7-8-8-8-8-8-8-8-8
D -5-5-5-5-5-5-5-5-3-3-3-3-3-3-3-3-7-7-7-7-7-7-7-7-8-8-8-8-8-8-8-8
A ---------------------------------5-5-5-5-5-5-5-5-6-6-6-6-6-6-6-6
E ----------------------------------------------------------------
                                   
chorus

e -----------------
B -----------------
G ---5-------5---8-
D -8-5-5-3-8-5-5-8-
A -8-3-5-3-8-3-5-6-
E -6---3-1-6---3---


bridge

e -----------
B -----------
G -12-10-7-8-
D -12-10-7-8-
A -10-8--5-6-
E -----------
Comments