Afi - God Called In Sick Today Chords & Tabs

 

God Called In Sick Today Chords & Tabs

Afi Chords & Tabs

Version: 1 Type: Tab 2 ratings
1 star 2 stars 3 stars 4 stars 5 stars
comments

God Called In Sick Today Tab

AFI “God Called in Sick Today”
The greatest song ever made, such a good song I have the intro and bridge here I was too lazy to figure out the rest.   Peace Hojo HyOyJyNyAyCyKyI 


E  -------------------------------------------------------------------------------------------------  
B  --------------------------------------------------------------------------------------------------
G ----------3-------3---------------2-------2--------------2--------2-------------3-----3--------          
D  ---5-5-----5-5----5-5---3-3------3-3-----3-3--0-0------0-0------0-0--1-1---1-1---1-1-0-
A----------------------------------------------------------------------------------------------------
E----------------------------------------------------------------------------------------------------
[ Tab from: http://www.guitartabs.cc/tabs/a/afi/god_called_in_sick_today_tab.html ]
E  --------------------------------------------------------------------------------------------  
B  ----------------6----------------------------------------------------------------------------
G --------3----3-----3-------------2------2------------2-3-2---------------3------3-------          
D  --5-5----5-----------5-----3-3---3-3----3-3--0-0--------3-0-0---1-1---1-1----1-1-0-
A----------------------------------------------------------------------------------------------
E----------------------------------------------------------------------------------------------
Repeat first 2
E  ------------------------------------------------------------------------------  
B  ------------------------------------------------------------------------------
G ------------------------------------------------------------------------------          
D  --7-------------------5---------------2--------------------3---------------------
A---5-------------------3----------------0-------------------1-----------------------
E---------------------------------------------------------------------------------
Whole line palm mute figure out beats for 
Comments