Afi - Girls Not Grey Chords & Tabs

 

Girls Not Grey Chords & Tabs

Afi Chords & Tabs

Version: 9 Type: Tab 0 ratings
1 star 2 stars 3 stars 4 stars 5 stars
comments

Girls Not Grey Tab

Gtr I 
|-5-(5)-5-5-------------3-(3)-3-3-5-5-|-5-5-5-(5)-5-5--| 
|-5-(5)-5-5-10-10-10-10-3-(3)-3-3-5-5-|-5-5-5-(5)-5-5--| 
|-5-(5)-5-5-10-10-10-10-4-(4)-4-4-5-5-|-5-5-5-(5)-5-5--| 
|-7-(7)-7-7-10-10-10-10-5-(5)-5-5-7-7-|-7-7-7-(7)-7-7--| 
|-7-(7)-7-7--8--8--8--8-5-(5)-5-5-7-7-|-7-7-7-(7)-7-7--| 
|-5-(5)-5-5--8--8--8--8-3-(3)-3-3-5-5-|-5-5-5-(5)-5-5--| 

|---------------------------------12-12-3-3-| 
|-10-10-10-10\12-(12)-12-12-12--0-13-13-3-3-| 
|-10-10-10-10\12-(12)-12-12-12--0-14-14-4-4-| 
|-10-10-10-10\12-(12)-12-12-12--0-14-14-5-5-| 
|--8--8--8--8\10-(10)-10-10-10----12-12-5-5-| 
|--8--8--8--8\10-(10)-10-10-10----12-12-3-3-| 

The over dubed part starts here 
|-5-(5)-5-5-------------3-(3)-3-3-5-5-5-5--| 
|-5-(5)-5-5-10-10-10-10-3-(3)-3-3-5-5-5-5--| 
|-5-(5)-5-5-10-10-10-10-4-(4)-4-4-5-5-5-5--| 
|-7-(7)-7-7-10-10-10-10-5-(5)-5-5-7-7-7-7--| 
|-7-(7)-7-7--8--8--8--8-5-(5)-5-5-7-7-7-7--| 
|-5-(5)-5-5--8--8--8--8-3-(3)-3-3-5-5-5-5--| 

|-5-(5)-5-5-----------------------------| 
|-5-(5)-5-5-10-10-10-10-----------------| 
|-5-(5)-5-5-10-10-10-10-----------------| 
|-7-(7)-7-7-10-10-10-10-----------------| 
|-7-(7)-7-7--8--8--8--8-10-10-(10)-5-7--| 
|-5-(5)-5-5--8--8--8--8--8--7--(7)-3-5--|  End here for over dubed 

Gtr 2. Overdub
|-------------------------------------------------------------------------------------------| 
|-------------------------------------------------------------------------------------------| 
|-------7h9--9-----4h5-5-5-----4-4-4p0--0~~--7h9~~--9-9-9-----7h9--9-9--4h5-5-5p0--5p4-0h2--| 
|--0-0--7----7-----3-------------------------7~~~~--7-7-7-----7----7-7----------0-----------| 
|-------0----0--0--0--------0----------------0~~~~--0-0-0--0--0----0-0----------------------| 
|----------------------------------------------------------0--------------------------------| 


Verse 
|-------------------------------------------------------------------------------| 
|-------------------------------------------------------------------------------| 
|-------5-5-5-5-5--7-7-7-7-7-7--5-5-5-5-5--4-4-4-4-4-4--5-5-5-5-5--7-7-7-7-7-7--| 
|-------7-7-7-7-7--5-5-5-5-5-5--3-3-3-3-3--5-5-5-5-5-5--7-7-7-7-7--5-5-5-5-5-5--| 
|-(7)---------------------------------------------------------------------------| 
|-(5)---------------------------------------------------------------------------| 


|------------------------------------------------------------------------------------| 
|------------------------------------------------------------------------------------|
|-7-7-7-7-7--5-5-5-5-5-5--5-5-5-5-5--7-7-7-7-7-7--5-5-5-5-5--4-4-4-4-4-4--5-5-5-5-5--| 
|-4-4-4-4-4--3-3-3-3-3-3--7-7-7-7-7--5-5-5-5-5-5--3-3-3-3-3--5-5-5-5-5-5--7-7-7-7-7--| 
|------------------------------------------------------------------------------------| 
|------------------------------------------------------------------------------------|
                          .............................p.m...........................
|--------------------------------------| 
|--------------------------------------|
|-7-7-7-7-7-7--7-7-7-7-7--5-5-5-5-5-5--|
|-5-5-5-5-5-5--4-4-4-4-4--3-3-3-3-3-3--|
|--------------------------------------|
|--------------------------------------|
  ...p.m.....

|------------------------------------------------------------------------------| 
|------------------------------------------------------------------------------| 
|-5-5-5-5-5--7-7-7-7-7-7--5-5-5-5-5-5--4-4-4-4-4--9-9-9-9-9-9--12-12-12-12-12--| 
|-7-7-7-7-7--5-5-5-5-5-5--3-3-3-3-3-3--5-5-5-5-5--7-7-7-7-7-7---9--9--9--9--9--| 
|------------------------------------------------------------------------------| 
|------------------------------------------------------------------------------| 


|----------------------------------------------------------5-5-5-5-5-5-5-5-5-5----| 
|----------------------------------------------------------5-5-5-5-5-5-5-5-5-5----| 
|-12-12-12-12-12-12--12-12-12-12-12-12-12----------5-5-5-5-5-5-5-5-5-5-5-5-5-5----| 
|-10-10-10-10-10-10--12-12-12-12-12-12-12----------7-7-7-7-7-7-7-7-7-7-7-7-7-7-0--| 
|--------------------10-10-10-10-10-10-10----------7-7-7-7-7-7-7-7-7-7-7-7-7-7-0--| 
|------------------------------------------5-5-5-5-5-5-5-5-5-5-5-5-5-5-5-5-5-5-0--| 


Chorus 
|--------------8--8--8--8-3-(3)-3-3-5--| 
|-10-(10)------8--8--8--8-3-(3)-3-3-5--| 
|-10-(10)-8----9--9--9--9-4-(4)-4-4-5--| 
|-10-(10)-8-8-10-10-10-10-5-(5)-5-5-7--| 
|--8--(8)-8-8-10-10-10-10-5-(5)-5-5-7--| 
|--8--(8)---8--8--8--8--8-3-(3)-3-3-5--| 

|-5-5-5---------------8--|--8--8--8-3-(3)-3-3-5--| 
|-5-5-5-10-(10)-10----8--|--8--8--8-3-(3)-3-3-5--| 
|-5-5-5-10-(10)-10----9--|--9--9--9-4-(4)-4-4-5--| 
|-7-7-7-10-(10)-10-8-10--|-10-10-10-5-(5)-5-5-7--| 
|-7-7-7--8--(8)--8-8-10--|-10-10-10-5-(5)-5-5-7--| 
|-5-5-5--8--(8)--8-8--8--|--8--8--8-3-(3)-3-3-5--| 

|-5-5-5-|---------------8--8--8--8-3-(3)-3-3-5--| 
|-5-5-5-|-10-(10)-10----8--8--8--8-3-(3)-3-3-5--| 
|-5-5-5-|-10-(10)-10----9--9--9--9-4-(4)-4-4-5--| 
|-7-7-7-|-10-(10)-10-8-10-10-10-10-5-(5)-5-5-7--| 
|-7-7-7-|--8--(8)--8-8-10-10-10-10-5-(5)-5-5-7--| 
|-5-5-5-|--8--(8)--8-8--8--8--8--8-3-(3)-3-3-5--| 

|-5-5-5-|---------------8---8--8--8-0-0-0-0-0-0-0-0----------------|  
|-5-5-5-|-10-(10)-10----8---8--8--8-0-0-0-0-0-0-0-0-9-9-9-9-9-9-9--| 
|-5-5-5-|-10-(10)-10----9---9--9--9-1-1-1-1-1-1-1-1-9-9-9-9-9-9-9--|
|-7-7-7-|-10-(10)-10-8-10--10-10-10-2-2-2-2-2-2-2-2-9-9-9-9-9-9-9--|
|-7-7-7-|--8--(8)--8-8-10--10-10-10-2-2-2-2-2-2-2-2-7-7-7-7-7-7-7--|
|-5-5-5-|--8--(8)--8-8--8---8--8--8-0-0-0-0-0-0-0-0-7-7-7-7-7-7-7--|

|-------------------------------| 
|-------------------------------| 
|-16-16-16-16-16-16-16-16-16-16-| 
|-------------------------------| 
|-14-14-14-14-14-14-14-14-14-14-| 
|-------------------------------| 


Verse 
|-------------------------------------------------------------------------------| 
|-------------------------------------------------------------------------------| 
|-------5-5-5-5-5--7-7-7-7-7-7--5-5-5-5-5--4-4-4-4-4-4--5-5-5-5-5--7-7-7-7-7-7--| 
|-------7-7-7-7-7--5-5-5-5-5-5--3-3-3-3-3--5-5-5-5-5-5--7-7-7-7-7--5-5-5-5-5-5--| 
|-(7)---------------------------------------------------------------------------| 
|-(5)---------------------------------------------------------------------------| 


|------------------------------------------------------------------------------------| 
|------------------------------------------------------------------------------------|
|-7-7-7-7-7--5-5-5-5-5-5--5-5-5-5-5--7-7-7-7-7-7--5-5-5-5-5--4-4-4-4-4-4--5-5-5-5-5--| 
|-4-4-4-4-4--3-3-3-3-3-3--7-7-7-7-7--5-5-5-5-5-5--3-3-3-3-3--5-5-5-5-5-5--7-7-7-7-7--| 
|------------------------------------------------------------------------------------| 
|------------------------------------------------------------------------------------|
                          .............................p.m...........................
|--------------------------------------| 
|--------------------------------------|
|-7-7-7-7-7-7--7-7-7-7-7--5-5-5-5-5-5--|
|-5-5-5-5-5-5--4-4-4-4-4--3-3-3-3-3-3--|
|--------------------------------------|
|--------------------------------------|
  ...p.m..... Fade out of p.m.'s

|------------------------------------------------------------------------------| 
|------------------------------------------------------------------------------| 
|-5-5-5-5-5--7-7-7-7-7-7--5-5-5-5-5-5--4-4-4-4-4--9-9-9-9-9-9--12-12-12-12-12--| 
|-7-7-7-7-7--5-5-5-5-5-5--3-3-3-3-3-3--5-5-5-5-5--7-7-7-7-7-7---9--9--9--9--9--| 
|------------------------------------------------------------------------------| 
|------------------------------------------------------------------------------| 


|----------------------------------------------------------5-5-5-5-5-5-5-5-5-5----| 
|----------------------------------------------------------5-5-5-5-5-5-5-5-5-5----| 
|-12-12-12-12-12-12--12-12-12-12-12-12-12----------5-5-5-5-5-5-5-5-5-5-5-5-5-5----| 
|-10-10-10-10-10-10--12-12-12-12-12-12-12----------7-7-7-7-7-7-7-7-7-7-7-7-7-7-0--| 
|--------------------10-10-10-10-10-10-10----------7-7-7-7-7-7-7-7-7-7-7-7-7-7-0--| 
|------------------------------------------5-5-5-5-5-5-5-5-5-5-5-5-5-5-5-5-5-5-0--| 

Chorus 
|--------------8--8--8--8-3-(3)-3-3-5--| 
|-10-(10)------8--8--8--8-3-(3)-3-3-5--| 
|-10-(10)-8----9--9--9--9-4-(4)-4-4-5--| 
|-10-(10)-8-8-10-10-10-10-5-(5)-5-5-7--| 
|--8--(8)-8-8-10-10-10-10-5-(5)-5-5-7--| 
|--8--(8)---8--8--8--8--8-3-(3)-3-3-5--| 


|-5-5-5-|---------------8--8--8--8-3-(3)-3-3-5--| 
|-5-5-5-|-10-(10)-10----8--8--8--8-3-(3)-3-3-5--| 
|-5-5-5-|-10-(10)-10----9--9--9--9-4-(4)-4-4-5--| 
|-7-7-7-|-10-(10)-10-8-10-10-10-10-5-(5)-5-5-7--| 
|-7-7-7-|--8--(8)--8-8-10-10-10-10-5-(5)-5-5-7--| 
|-5-5-5-|--8--(8)--8-8--8--8--8--8-3-(3)-3-3-5--| 

[ Tab from: http://www.guitartabs.cc/tabs/a/afi/girls_not_grey_tab_ver_9.html ]
|-5-5-5-|---------------8--8--8--8-3-(3)-3-3-5--| 
|-5-5-5-|-10-(10)-10----8--8--8--8-3-(3)-3-3-5--| 
|-5-5-5-|-10-(10)-10----9--9--9--9-4-(4)-4-4-5--| 
|-7-7-7-|-10-(10)-10-8-10-10-10-10-5-(5)-5-5-7--| 
|-7-7-7-|--8--(8)--8-8-10-10-10-10-5-(5)-5-5-7--| 
|-5-5-5-|--8--(8)--8-8--8--8--8--8-3-(3)-3-3-5--| 


|-5-5-5-|---------------8--8--8--8----------------| 
|-5-5-5-|-10-(10)-10----8--8--8--8-0-0-0-0-0-0-0--| 
|-5-5-5-|-10-(10)-10----9--9--9--9-1-1-1-1-1-1-1--| 
|-7-7-7-|-10-(10)-10-8-10-10-10-10-2-2-2-2-2-2-2--| 
|-7-7-7-|--8--(8)--8-8-10-10-10-10-2-2-2-2-2-2-2--| 
|-5-5-5-|--8--(8)--8-8--8--8--8--8-0-0-0-0-0-0-0--| 


----|-------------------------------------------| 
|-9-9-9-9-9-9-9-9-------------------------------| 
|-9-9-9-9-9-9-9-9-16-16-16-16-16-16-16-16-16-16-| 
|-9-9-9-9-9-9-9-9-------------------------------| 
|-7-7-7-7-7-7-7-7-14-14-14-14-14-14-14-14-14-14-| 
|-7-7-7-7-7-7-7-7-------------------------------| 


Bridge 
|-5-5-5-5-5----------------| 
|-6-6-6-6-6-5-5-5-5-5-5-5--| 
|-7-7-7-7-7-5-5-5-5-5-5-5--| 
|-9-9-9-9-9-5-5-5-5-5-5-5--| 
|-5-5-5-5-5-3-3-3-3-3-3-3--| 
|-5-5-5-5-5-3-3-3-3-3-3-3--| 


|-3-3-3-3-3-5-5-5-5-5-5-5-5-5-5-5-5----------------| 
|-3-3-3-3-3-5-5-5-5-5-5-5-6-6-6-6-6-5-5-5-5-5-5-5--| 
|-4-4-4-4-4-5-5-5-5-5-5-5-7-7-7-7-7-5-5-5-5-5-5-5--| 
|-5-5-5-5-5-7-7-7-7-7-7-7-7-7-7-7-7-5-5-5-5-5-5-5--| 
|-5-5-5-5-5-7-7-7-7-7-7-7-5-5-5-5-5-3-3-3-3-3-3-3--| 
|-3-3-3-3-3-5-5-5-5-5-5-5-5-5-5-5-5-3-3-3-3-3-3-3--| 

|-3-3-3-3-3-5-5-5-5-5-5------------------| 
|-3-3-3-3-3-5-5-5-5-5-5------------------| 
|-4-4-4-4-4-5-5-5-5-5-5------------------| 
|-5-5-5-5-5-7-7-7-7-7-7------------------| 
|-5-5-5-5-5-7-7-7-7-7-7-----10-10-10-10--| 
|-3-3-3-3-3-5-5-5-5-5-5-0-0--7--8--8--8--| 


|----------------------12-12-12-12-12-12-12--| 
|-12-12-12-12-12-12-12-13-13-13-13-13-12-12--| 
|-12-12-12-12-12-12-12-14-14-14-14-14-14-14--| 
|-12-12-12-12-12-12-12-14-14-14-14-14-14-14--| 
|-10-10-10-10-10-10-10-12-12-12-12-12-12-12--| 
|-10-10-10-10-10-10-10-12-12-12-12-12-12-12--| 


Interlude 
|-12-12-12-12-12-12-12-12-12-12-5-5-|-5-5-5--------------|---------0-(0)------| 
|-12-12-12-12-12-13-13-13-13-13-6-6-|-6-6-6-5-5-5-(5)----|-(5)-----------0----| 
|-14-14-14-14-14-14-14-14-14-14-7-7-|-7-7-7-5-5-5-(5)----|-(5)----------------| 
|-14-14-14-14-14-14-14-14-14-14-7-7-|-7-7-7-5-5-5-(5)----|-(5)---7---------7--| 
|-12-12-12-12-12-12-12-12-12-12-5-5-|-5-5-5-3-3-3-(3)----|-(3)----------------| 
|-12-12-12-12-12-12-12-12-12-12-5-5-|-5-5-5-3-3-3-(3)----|-(3)----------------| 


|-0-(0)---------0---|----------------0-|----------0-------|-------0--------| 
|-------0---------0-|-(0)----(0)-------|-0-(0)------0-----|---------0------| 
|---------5---------|------------------|--------------5---|----------------| 
|-----------7-5-----|--------------7---|-------7--------7-|-(7)-6-----6----| 
|-------------------|------------------|------------------|----------------| 
|-------------------|------------------|------------------|----------------| 


|-0-----0-(0)------|-0-------------0---|----------------0-|-(0)------0---------| 
|-0-----------0----|---0-------------0-|-(0)----(0)-------|-----0------0-(0)---| 
|------------------|-----5-------------|------------------|------------------5-| 
|-----7---------7--|-------0-(0)-5-----|--------------7---|-------7------------| 
|------------------|-------------------|------------------|--------------------| 
|------------------|-------------------|------------------|--------------------| 


|-----0-----------------|----------------12-------| 
|-------0---------------|-------------------13----| 
|-----------------------|-------------14-------14-| 
|-0-5-----4-(4)-(4)-(4)-|-(4)-(4)S2-0-------------| 
|-----------------------|-------------------------| 
|-----------------------|-------------------------| 


|-12-----------------------12-|-(12)----(12)--------| 
|----13-(13)------------------|----------------(12)-| 
|------------14-(14)-14-12----|---------------------| 
|-----------------------------|---------------------| 
|-----------------------------|---------------------| 
|-----------------------------|---------------------| 


|----12-------12------------|----15--------13-(13)----| 
|-------13-------13-(13)----|-------13-------------13-| 
|-14-------14------------14-|-14-------14-------------| 
|---------------------------|-------------------------| 
|---------------------------|-------------------------| 
|---------------------------|-------------------------| 


|-----------------12-------12--|-----------------------12-----| 
|-(13)---------------13--------|-13-----------------------12--| 
|------14-(14)-14-------14-----|----14-(14)-14-(14)-12--------| 
|------------------------------|------------------------------| 
|------------------------------|------------------------------| 
|------------------------------|------------------------------| 


|-----------------|-12-------12----------------| 
|-----------------|----13--------13------------| 
|-12----(12)---14-|-------14--------14-(14)-14-| 
|-----------------|----------------------------| 
|-----------------|----------------------------| 
|-----------------|----------------------------| 


|------15-------15-------15-|----13-------13-------13--| 
|---------13-------13-------|-14----13-------13--------| 
|-(14)-------14-------14----|----------14-------14-----| 
|---------------------------|--------------------------| 
|---------------------------|--------------------------| 
|---------------------------|--------------------------| 


|-----------------------------------------------| 
|-----------------------------------------------| 
|---14-14-14-14-12-12-12-12-10-10-10-10-9-9-9-9-| 
|----x--x--x--x--x--x--x--x--x--x--x--x-x-x-x-x-| 
|---12-12-12-12-10-10-10-10--8--8--8--8-7-7-7-7-| 
|-0---------------------------------------------| 


Chorus 
|--------------8--8--8--8-3-(3)-3-3-5--| 
|-10-(10)------8--8--8--8-3-(3)-3-3-5--| 
|-10-(10)-8----9--9--9--9-4-(4)-4-4-5--| 
|-10-(10)-8-8-10-10-10-10-5-(5)-5-5-7--| 
|--8--(8)-8-8-10-10-10-10-5-(5)-5-5-7--| 
|--8--(8)---8--8--8--8--8-3-(3)-3-3-5--| 


|-5-5-5-|---------------8--8--8--8-3-(3)-3-3-5--| 
|-5-5-5-|-10-(10)-10----8--8--8--8-3-(3)-3-3-5--| 
|-5-5-5-|-10-(10)-10----9--9--9--9-4-(4)-4-4-5--| 
|-7-7-7-|-10-(10)-10-8-10-10-10-10-5-(5)-5-5-7--| 
|-7-7-7-|--8--(8)--8-8-10-10-10-10-5-(5)-5-5-7--| 
|-5-5-5-|--8--(8)--8-8--8--8--8--8-3-(3)-3-3-5--| 


|-5-5-5-|---------------8--8--8--8-3-(3)-3-3-5--| 
|-5-5-5-|-10-(10)-10----8--8--8--8-3-(3)-3-3-5--| 
|-5-5-5-|-10-(10)-10----9--9--9--9-4-(4)-4-4-5--| 
|-7-7-7-|-10-(10)-10-8-10-10-10-10-5-(5)-5-5-7--| 
|-7-7-7-|--8--(8)--8-8-10-10-10-10-5-(5)-5-5-7--| 
|-5-5-5-|--8--(8)--8-8--8--8--8--8-3-(3)-3-3-5--| 


|-5-5-5-|---------------8--8--8--8----------------| 
|-5-5-5-|-10-(10)-10----8--8--8--8-0-0-0-0-0-0-0--| 
|-5-5-5-|-10-(10)-10----9--9--9--9-1-1-1-1-1-1-1--| 
|-7-7-7-|-10-(10)-10-8-10-10-10-10-2-2-2-2-2-2-2--| 
|-7-7-7-|--8--(8)--8-8-10-10-10-10-2-2-2-2-2-2-2--| 
|-5-5-5-|--8--(8)--8-8--8--8--8--8-0-0-0-0-0-0-0--| 


|-----------------------------------------------| 
|-9-9-9-9-9-9-9-9-------------------------------| 
|-9-9-9-9-9-9-9-9-16-16-16-16-16-16-16-16-16-16-| 
|-9-9-9-9-9-9-9-9-------------------------------| 
|-7-7-7-7-7-7-7-7-14-14-14-14-14-14-14-14-14-14-| 
|-7-7-7-7-7-7-7-7-------------------------------| 


Outro 
|-5-(5)-5-5-------------3-(3)-3-3-5-5-|-5-5-5-(5)-5-5--| 
|-5-(5)-5-5-10-10-10-10-3-(3)-3-3-5-5-|-5-5-5-(5)-5-5--| 
|-5-(5)-5-5-10-10-10-10-4-(4)-4-4-5-5-|-5-5-5-(5)-5-5--| 
|-7-(7)-7-7-10-10-10-10-5-(5)-5-5-7-7-|-7-7-7-(7)-7-7--| 
|-7-(7)-7-7--8--8--8--8-5-(5)-5-5-7-7-|-7-7-7-(7)-7-7--| 
|-5-(5)-5-5--8--8--8--8-3-(3)-3-3-5-5-|-5-5-5-(5)-5-5--| 

|---------------------------------12-12-3-3-| 
|-10-10-10-10S12-(12)-12-12-12--0-13-13-3-3-| 
|-10-10-10-10S12-(12)-12-12-12--0-14-14-4-4-| 
|-10-10-10-10S12-(12)-12-12-12--0-14-14-5-5-| 
|--8--8--8--8S10-(10)-10-10-10----12-12-5-5-| 
|--8--8--8--8S10-(10)-10-10-10----12-12-3-3-| 

The over dubed part starts here 
|-5-(5)-5-5-------------3-(3)-3-3-5-5-5-5--| 
|-5-(5)-5-5-10-10-10-10-3-(3)-3-3-5-5-5-5--| 
|-5-(5)-5-5-10-10-10-10-4-(4)-4-4-5-5-5-5--| 
|-7-(7)-7-7-10-10-10-10-5-(5)-5-5-7-7-7-7--| 
|-7-(7)-7-7--8--8--8--8-5-(5)-5-5-7-7-7-7--| 
|-5-(5)-5-5--8--8--8--8-3-(3)-3-3-5-5-5-5--| 

|-5-(5)-5-5-----------------------------| 
|-5-(5)-5-5-10-10-10-10-----------------| 
|-5-(5)-5-5-10-10-10-10-----------------| 
|-7-(7)-7-7-10-10-10-10-----------------| 
|-7-(7)-7-7--8--8--8--8-10-10-(10)-5-7--| 
|-5-(5)-5-5--8--8--8--8--8--7--(7)-3-5--|  End here for over dubed 

Gtr 2. Overdub
|-------------------------------------------------------------------------------------------| 
|-------------------------------------------------------------------------------------------| 
|-------7h9--9-----4h5-5-5-----4-4-4p0--0~~--7h9~~--9-9-9-----7h9--9-9--4h5-5-5p0--5p4-0h2--| 
|--0-0--7----7-----3-------------------------7~~~~--7-7-7-----7----7-7----------0-----------| 
|-------0----0--0--0--------0----------------0~~~~--0-0-0--0--0----0-0----------------------| 
|----------------------------------------------------------0--------------------------------| 

|------------*| 
|------------*| 
|------------*| 
|------------*| 
|-(7)--------*| 
|-(5)--------*|
Comments