Afi - Girls Not Grey Chords & Tabs

 

Girls Not Grey Chords & Tabs

Afi Chords & Tabs

Version: 8 Type: Tab 0 ratings
1 star 2 stars 3 stars 4 stars 5 stars
comments

Girls Not Grey Tab

   
---------------------------------------------------------------------------------
		AFI - GIRLS NOT GREY
---------------------------------------------------------------------------------

Okay, this is an alternative way to play this song, because of the tuning.
On the recording, Jade tunes his guitar down half a step (Eb Standard),
making it a pain in the arse to tune it down everytime I want to play this
song. So, here's a version in drop-D tuning (DADGBE) that sounds exactly
as if it were done in Eb Standard, but without all the issues of tuning down.
MUCH EASIER!

Tuning: Drop-D (D A D G B E)
Album:  Sing the Sorrow



Intro

e-----------------|-----------------|-----------------|-----------------------|
B-----------------|-----------------|-----------------|-----------------------|
G---------9--9-9--|-----------------|---------9--9-9--|-11--11-11--13--13-13--|
D-6--6-6--9--9-9--|-4--4-4--6--6-6--|-6--6-6--9--9-9--|-11--11-11--13--13-13--|
A-6--6-6--7--7-7--|-4--4-4--6--6-6--|-6--6-6--7--7-7--|-9---9--9---11--11-11--|
D-6--6-6----------|-4--4-4--6--6-6--|-6--6-6----------|-----------------------|

e-----------------|-----------------|-----------------|-------------|
B-----------------|-----------------|-----------------|-------------|
G---------9--9-9--|-----------------|---------9--9-9--|-------------|
D-6--6-6--9--9-9--|-4--4-4--6--6-6--|-6--6-6--9--9-9--|-------------|
A-6--6-6--7--7-7--|-4--4-4--6--6-6--|-6--6-6--7--7-7--|-9--8--4--6--|
D-6--6-6----------|-4--4-4--6--6-6--|-6--6-6----------|-9--8--4--6--|



Verse 1

e----------------|-----------------|-----------------|-----------------|
B----------------|-----------------|-----------------|-----------------|
G-4--4-4--6--6-6-|-4--4-4--3--3-3--|-4--4-4--6--6-6--|-6--6-6--4--4-4--|
D-6--6-6--4--4-4-|-2--2-2--4--4-4--|-6--6-6--4--4-4--|-3--3-3--2--2-2--|
A----------------|-----------------|-----------------|-----------------|
D----------------|-----------------|-----------------|-----------------|

e----------------|-----------------|-----------------|-----------------|
B----------------|-----------------|-----------------|-----------------|
G-4--4-4--6--6-6-|-4--4-4--3--3-3--|-4--4-4--6--6-6--|-6--6-6--4--4-4--|
D-6--6-6--4--4-4-|-2--2-2--4--4-4--|-6--6-6--4--4-4--|-3--3-3--2--2-2--|
A----------------|-----------------|-----------------|-----------------|
D----------------|-----------------|-----------------|-----------------|
pm___________________________________________________

e----------------|-----------------|-----------------|-----------------|
B----------------|-----------------|-----------------|-----------------|
G-4--4-4--6--6-6-|-4--4-4--3--3-3--|-4--4-4--6--6-6--|-6--6-6--4--4-4--|
D-6--6-6--4--4-4-|-2--2-2--4--4-4--|-6--6-6--4--4-4--|-3--3-3--2--2-2--|
A----------------|-----------------|-----------------|-----------------|
D----------------|-----------------|-----------------|-----------------|

e-----------------|-----------------|
B-----------------|-----------------|
G-----------------|-----------------|
D-----------------|-4-4-4-4-4-4-4-4-|
A---------4-4-4-4-|-4-4-4-4-4-4-4-4-|
D-4-4-4-4-4-4-4-4-|-4-4-4-4-4-4-4-4-|



Chorus

e------------------|-----------------|------------------|-----------------|
B------------------|-----------------|------------------|-----------------|
G-9--9-9-----------|-----------------|-9--9-9-----------|-----------------|
D-9--9-9---9--9-9--|-4--4-4--6--6-6--|-9--9-9---9--9-9--|-4--4-4--6--6-6--|
A-7--7-7---9--9-9--|-4--4-4--6--6-6--|-7--7-7---9--9-9--|-4--4-4--6--6-6--|
D----------9--9-9--|-4--4-4--6--6-6--|----------9--9-9--|-4--4-4--6--6-6--|

e------------------|-----------------|------------------|-----------------|
B------------------|-----------------|------------------|-----------------|
G-9--9-9-----------|-----------------|-9--9-9-----------|---------8--8-8--|
D-9--9-9---9--9-9--|-4--4-4--6--6-6--|-9--9-9---9--9-9--|-1--1-1--8--8-8--|
A-7--7-7---9--9-9--|-4--4-4--6--6-6--|-7--7-7---9--9-9--|-1--1-1--6--6-6--|
D----------9--9-9--|-4--4-4--6--6-6--|----------9--9-9--|-1--1-1--8--8-8--|

e-------------------------|
B-------------------------|
G-15-15-15-15-15-15-15-15-|
D-x--x--x--x--x--x--x--x--|
A-13-13-13-13-13-13-13-13-|
D-------------------------|



Verse 2

e----------------|-----------------|-----------------|-----------------|
B----------------|-----------------|-----------------|-----------------|
G-4--4-4--6--6-6-|-4--4-4--3--3-3--|-4--4-4--6--6-6--|-6--6-6--4--4-4--|
D-6--6-6--4--4-4-|-2--2-2--4--4-4--|-6--6-6--4--4-4--|-3--3-3--2--2-2--|
A----------------|-----------------|-----------------|-----------------|
D----------------|-----------------|-----------------|-----------------|

e----------------|-----------------|-----------------|-----------------|
B----------------|-----------------|-----------------|-----------------|
G-4--4-4--6--6-6-|-4--4-4--3--3-3--|-4--4-4--6--6-6--|-6--6-6--4--4-4--|
D-6--6-6--4--4-4-|-2--2-2--4--4-4--|-6--6-6--4--4-4--|-3--3-3--2--2-2--|
A----------------|-----------------|-----------------|-----------------|
D----------------|-----------------|-----------------|-----------------|
pm___________________________________________________

e----------------|-----------------|-----------------|-----------------|
B----------------|-----------------|-----------------|-----------------|
G-4--4-4--6--6-6-|-4--4-4--3--3-3--|-4--4-4--6--6-6--|-6--6-6--4--4-4--|
D-6--6-6--4--4-4-|-2--2-2--4--4-4--|-6--6-6--4--4-4--|-3--3-3--2--2-2--|
A----------------|-----------------|-----------------|-----------------|
D----------------|-----------------|-----------------|-----------------|

e-----------------|-----------------|
B-----------------|-----------------|
G-----------------|-----------------|
D-----------------|-4-4-4-4-4-4-4-4-|
A---------4-4-4-4-|-4-4-4-4-4-4-4-4-|
D-4-4-4-4-4-4-4-4-|-4-4-4-4-4-4-4-4-|



Chorus
[ Tab from: http://www.guitartabs.cc/tabs/a/afi/girls_not_grey_tab_ver_8.html ]
e------------------|-----------------|------------------|-----------------|
B------------------|-----------------|------------------|-----------------|
G-9--9-9-----------|-----------------|-9--9-9-----------|-----------------|
D-9--9-9---9--9-9--|-4--4-4--6--6-6--|-9--9-9---9--9-9--|-4--4-4--6--6-6--|
A-7--7-7---9--9-9--|-4--4-4--6--6-6--|-7--7-7---9--9-9--|-4--4-4--6--6-6--|
D----------9--9-9--|-4--4-4--6--6-6--|----------9--9-9--|-4--4-4--6--6-6--|

e------------------|-----------------|------------------|-----------------|
B------------------|-----------------|------------------|-----------------|
G-9--9-9-----------|-----------------|-9--9-9-----------|---------8--8-8--|
D-9--9-9---9--9-9--|-4--4-4--6--6-6--|-9--9-9---9--9-9--|-1--1-1--8--8-8--|
A-7--7-7---9--9-9--|-4--4-4--6--6-6--|-7--7-7---9--9-9--|-1--1-1--6--6-6--|
D----------9--9-9--|-4--4-4--6--6-6--|----------9--9-9--|-1--1-1--8--8-8--|

e-------------------------|
B-------------------------|
G-15-15-15-15-15-15-15-15-|
D-x--x--x--x--x--x--x--x--|
A-13-13-13-13-13-13-13-13-|
D-------------------------|



Bridge

e-----------------|-----------------|-----------------|-----------------|
B-----------------|-----------------|-----------------|-----------------|
G-6--6-6--4--4-4--|-----------------|-6--6-6--4--4-4--|-----------------|
D-6--6-6--4--4-4--|-4--4-4--6--6-6--|-6--6-6--4--4-4--|-4--4-4--6--6-6--|
A-4--4-4--2--2-2--|-4--4-4--6--6-6--|-4--4-4--2--2-2--|-4--4-4--6--6-6--|
D-----------------|-4--4-4--6--6-6--|-----------------|-4--4-4--6--6-6--|

e--------------------|-----------------------|-----------------|------------|
B--------------------|-----------------------|-----------------|------------|
G---------11--11-11--|-13--13-13--13--13-13--|-6--6-6--4--4-4--|------------|
D---------11--11-11--|-13--13-13--13--13-13--|-6--6-6--4--4-4--|-4----------|
A-9--9-9--9---9--9---|-11--11-11--11--11-11--|-4--4-4--2--2-2--|-4----------|
D-9--9-9-------------|-----------------------|-----------------|-4----------|

e-----------------|--------------|-----------------|----------------|
B---4-----4-------|-----4--------|---4-----4-------|---4-----4------|
G-----3-----3-4---|---------3----|-----3-----3-4---|-----3---3------|
D-6-----6-------6-|-4------------|-6-----6-------6-|-5-----5--------|
A-----------------|-----------4--|-----------------|----------------|
D-----------------|--------------|-----------------|----------------|

e-----------------|--------------|-----------------|---------------|
B---4-----4-------|---4----------|---4-----4-------|---4-----------|
G-----3-----3-4---|-----3--------|-----3-----3-4---|-----3---------|
D-6-----6---------|-4------------|-6-----6---------|-4-----3-\-1---|
A---------------4-|--------------|---------------4-|-------------4-|
D-----------------|--------------|-----------------|---------------|

e----11-------11----------|----11---------|----11-------11----------|
B-------12-------12-------|-------11------|-------12-------12-------|
G-13-------13-------13-13-|-11------------|-13-------13-------13-13-|
D-------------------------|---------------|-------------------------|
A-------------------------|---------------|-------------------------|
D-------------------------|---------------|-------------------------|

e-14---------12---------|----11-------11----------|----11--------------|
B------12---------12----|-------12-------12-------|-------11-----------|
G---------13---------13-|-13-------13-------13-13-|-11-------------11--|
D-----------------------|-------------------------|--------------------|
A-----------------------|-------------------------|--------------------|
D-----------------------|-------------------------|--------------------|

e----11-------11----------|-14-------14-------14----|-12-------12-------12-\---|
B-------12-------12-------|----12-------12-------13-|----12-------12-----------|
G-13-------13-------13-13-|-------13-------13-------|-------13-------13--------|
D-------------------------|-------------------------|--------------------------|
A-------------------------|-------------------------|--------------------------|
D-------------------------|-------------------------|------------------------0-|

e---------------------------------------|
B---------------------------------------|
G-13-13-13-\-11-11-11-\-9-9-9-\-8-8-8---|
D-x--x--x----x--x--x----x-x-x---x-x-x---|
A-11-11-11-\-9--9--9--\-7-7-7-\-6-6-6---|
D-------------------------------------0-|



Chorus

e------------------|-----------------|------------------|-----------------|
B------------------|-----------------|------------------|-----------------|
G-9--9-9-----------|-----------------|-9--9-9-----------|-----------------|
D-9--9-9---9--9-9--|-4--4-4--6--6-6--|-9--9-9---9--9-9--|-4--4-4--6--6-6--|
A-7--7-7---9--9-9--|-4--4-4--6--6-6--|-7--7-7---9--9-9--|-4--4-4--6--6-6--|
D----------9--9-9--|-4--4-4--6--6-6--|----------9--9-9--|-4--4-4--6--6-6--|

e------------------|-----------------|------------------|-----------------|
B------------------|-----------------|------------------|-----------------|
G-9--9-9-----------|-----------------|-9--9-9-----------|---------8--8-8--|
D-9--9-9---9--9-9--|-4--4-4--6--6-6--|-9--9-9---9--9-9--|-1--1-1--8--8-8--|
A-7--7-7---9--9-9--|-4--4-4--6--6-6--|-7--7-7---9--9-9--|-1--1-1--6--6-6--|
D----------9--9-9--|-4--4-4--6--6-6--|----------9--9-9--|-1--1-1--8--8-8--|

e--------------------------|
B--------------------------|
G-15-15-15-15-15-15--------|
D-x--x--x--x--x--x---------|
A-13-13-13-13-13-13--------|
D-------------------1-13-\-|



Outro

e-----------------|-----------------|-----------------|-----------------------|
B-----------------|-----------------|-----------------|-----------------------|
G---------9--9-9--|-----------------|---------9--9-9--|-11--11-11--13--13-13--|
D-6--6-6--9--9-9--|-4--4-4--6--6-6--|-6--6-6--9--9-9--|-11--11-11--13--13-13--|
A-6--6-6--7--7-7--|-4--4-4--6--6-6--|-6--6-6--7--7-7--|-9---9--9---11--11-11--|
D-6--6-6----------|-4--4-4--6--6-6--|-6--6-6----------|-----------------------|

e-----------------|-----------------|-----------------|-------------|
B-----------------|-----------------|-----------------|-------------|
G---------9--9-9--|-----------------|---------9--9-9--|-------------|
D-6--6-6--9--9-9--|-4--4-4--6--6-6--|-6--6-6--9--9-9--|-------------|
A-6--6-6--7--7-7--|-4--4-4--6--6-6--|-6--6-6--7--7-7--|-9--8--4--6--|
D-6--6-6----------|-4--4-4--6--6-6--|-6--6-6----------|-9--8--4--6--|
Comments